  0
SECTION
  2
HEADER
  9
$ACADVER
  1
AC1009
  9
$INSBASE
 10
0.0
 20
0.0
 30
0.0
  9
$EXTMIN
 10
23.733300265316611
 20
21.615977891510511
 30
0.0
  9
$EXTMAX
 10
2323.7333002653158
 20
1294.158970803448
 30
0.0
  9
$LIMMIN
 10
0.0
 20
0.0
  9
$LIMMAX
 10
420.0
 20
297.0
  9
$ORTHOMODE
 70
     0
  9
$REGENMODE
 70
     1
  9
$FILLMODE
 70
     1
  9
$QTEXTMODE
 70
     0
  9
$MIRRTEXT
 70
     1
  9
$DRAGMODE
 70
     2
  9
$LTSCALE
 40
1.0
  9
$OSMODE
 70
    37
  9
$ATTMODE
 70
     1
  9
$TEXTSIZE
 40
2.5
  9
$TRACEWID
 40
1.0
  9
$TEXTSTYLE
  7
STANDARD
  9
$CLAYER
  8
0
  9
$CELTYPE
  6
BYLAYER
  9
$CECOLOR
 62
   256
  9
$DIMSCALE
 40
1.0
  9
$DIMASZ
 40
2.5
  9
$DIMEXO
 40
0.625
  9
$DIMDLI
 40
3.75
  9
$DIMRND
 40
0.0
  9
$DIMDLE
 40
0.0
  9
$DIMEXE
 40
1.25
  9
$DIMTP
 40
0.0
  9
$DIMTM
 40
0.0
  9
$DIMTXT
 40
2.5
  9
$DIMCEN
 40
2.5
  9
$DIMTSZ
 40
0.0
  9
$DIMTOL
 70
     0
  9
$DIMLIM
 70
     0
  9
$DIMTIH
 70
     0
  9
$DIMTOH
 70
     0
  9
$DIMSE1
 70
     0
  9
$DIMSE2
 70
     0
  9
$DIMTAD
 70
     1
  9
$DIMZIN
 70
     8
  9
$DIMBLK
  1

  9
$DIMASO
 70
     1
  9
$DIMSHO
 70
     1
  9
$DIMPOST
  1

  9
$DIMAPOST
  1

  9
$DIMALT
 70
     0
  9
$DIMALTD
 70
     3
  9
$DIMALTF
 40
0.03937007874016
  9
$DIMLFAC
 40
1.0
  9
$DIMTOFL
 70
     1
  9
$DIMTVP
 40
0.0
  9
$DIMTIX
 70
     0
  9
$DIMSOXD
 70
     0
  9
$DIMSAH
 70
     0
  9
$DIMBLK1
  1

  9
$DIMBLK2
  1

  9
$DIMSTYLE
  2
ISO-25
  9
$DIMCLRD
 70
     0
  9
$DIMCLRE
 70
     0
  9
$DIMCLRT
 70
     0
  9
$DIMTFAC
 40
1.0
  9
$DIMGAP
 40
0.625
  9
$LUNITS
 70
     2
  9
$LUPREC
 70
     4
  9
$SKETCHINC
 40
1.0
  9
$FILLETRAD
 40
10.0
  9
$AUNITS
 70
     0
  9
$AUPREC
 70
     0
  9
$MENU
  1
.
  9
$ELEVATION
 40
0.0
  9
$PELEVATION
 40
0.0
  9
$THICKNESS
 40
0.0
  9
$LIMCHECK
 70
     0
  9
$BLIPMODE
 70
     0
  9
$CHAMFERA
 40
10.0
  9
$CHAMFERB
 40
10.0
  9
$SKPOLY
 70
     0
  9
$TDCREATE
 40
2452216.468578727
  9
$TDUPDATE
 40
2452216.4689314351
  9
$TDINDWG
 40
0.0003534028
  9
$TDUSRTIMER
 40
0.000353287
  9
$USRTIMER
 70
     1
  9
$ANGBASE
 50
0.0
  9
$ANGDIR
 70
     0
  9
$PDMODE
 70
     0
  9
$PDSIZE
 40
0.0
  9
$PLINEWID
 40
0.0
  9
$COORDS
 70
     1
  9
$SPLFRAME
 70
     0
  9
$SPLINETYPE
 70
     6
  9
$SPLINESEGS
 70
     8
  9
$ATTDIA
 70
     0
  9
$ATTREQ
 70
     1
  9
$HANDLING
 70
-16383
  9
$HANDSEED
  5
9C8
  9
$SURFTAB1
 70
     6
  9
$SURFTAB2
 70
     6
  9
$SURFTYPE
 70
     6
  9
$SURFU
 70
     6
  9
$SURFV
 70
     6
  9
$UCSNAME
  2

  9
$UCSORG
 10
0.0
 20
0.0
 30
0.0
  9
$UCSXDIR
 10
1.0
 20
0.0
 30
0.0
  9
$UCSYDIR
 10
0.0
 20
1.0
 30
0.0
  9
$PUCSNAME
  2

  9
$PUCSORG
 10
0.0
 20
0.0
 30
0.0
  9
$PUCSXDIR
 10
1.0
 20
0.0
 30
0.0
  9
$PUCSYDIR
 10
0.0
 20
1.0
 30
0.0
  9
$USERI1
 70
     0
  9
$USERI2
 70
     0
  9
$USERI3
 70
     0
  9
$USERI4
 70
     0
  9
$USERI5
 70
     0
  9
$USERR1
 40
0.0
  9
$USERR2
 40
0.0
  9
$USERR3
 40
0.0
  9
$USERR4
 40
0.0
  9
$USERR5
 40
0.0
  9
$WORLDVIEW
 70
     1
  9
$SHADEDGE
 70
     3
  9
$SHADEDIF
 70
    70
  9
$TILEMODE
 70
     1
  9
$MAXACTVP
 70
    64
  9
$PLIMCHECK
 70
     0
  9
$PEXTMIN
 10
1.0000000000000000E+020
 20
1.0000000000000000E+020
 30
1.0000000000000000E+020
  9
$PEXTMAX
 10
-1.0000000000000000E+020
 20
-1.0000000000000000E+020
 30
-1.0000000000000000E+020
  9
$PLIMMIN
 10
0.0
 20
0.0
  9
$PLIMMAX
 10
420.0
 20
297.0
  9
$UNITMODE
 70
     0
  9
$VISRETAIN
 70
     1
  9
$PLINEGEN
 70
     0
  9
$PSLTSCALE
 70
     1
  0
ENDSEC
  0
SECTION
  2
TABLES
  0
TABLE
  2
VPORT
 70
     3
  0
VPORT
  2
*ACTIVE
 70
     0
 10
0.0
 20
0.0
 11
1.0
 21
1.0
 12
212.36907582938389
 22
148.5
 13
0.0
 23
0.0
 14
10.0
 24
10.0
 15
10.0
 25
10.0
 16
0.0
 26
0.0
 36
1.0
 17
0.0
 27
0.0
 37
0.0
 40
297.0
 41
1.430094786729857
 42
50.0
 43
0.0
 44
0.0
 50
0.0
 51
0.0
 71
     0
 72
   100
 73
     1
 74
     3
 75
     0
 76
     0
 77
     0
 78
     0
  0
ENDTAB
  0
TABLE
  2
LTYPE
 70
     2
  0
LTYPE
  2
CONTINUOUS
 70
     0
  3
Solid line
 72
    65
 73
     0
 40
0.0
  0
LTYPE
  2
CENTER
 70
     0
  3
Center ____ _ ____ _ ____ _ ____ _ ____ _ ____
 72
    65
 73
     4
 40
50.799999999999997
 49
31.75
 49
-6.3499999999999988
 49
6.3499999999999988
 49
-6.3499999999999988
  0
ENDTAB
  0
TABLE
  2
LAYER
 70
     3
  0
LAYER
  2
0
 70
     0
 62
     7
  6
CONTINUOUS
  0
LAYER
  2
1外形線
 70
     0
 62
     3
  6
CONTINUOUS
  0
LAYER
  2
2寸法線
 70
     0
 62
     2
  6
CONTINUOUS
  0
ENDTAB
  0
TABLE
  2
STYLE
 70
     2
  0
STYLE
  2
STANDARD
 70
     0
 40
0.0
 41
1.0
 50
0.0
 71
     0
 42
2.5
  3
txt
  4

  0
STYLE
  2
KANJI
 70
     0
 40
0.0
 41
1.0
 50
0.0
 71
     0
 42
2.5
  3
simplex.shx
  4
extfont.shx
  0
ENDTAB
  0
TABLE
  2
VIEW
 70
     0
  0
ENDTAB
  0
TABLE
  2
UCS
 70
     0
  0
ENDTAB
  0
TABLE
  2
APPID
 70
     1
  0
APPID
  2
ACAD
 70
     0
  0
ENDTAB
  0
TABLE
  2
DIMSTYLE
 70
     2
  0
DIMSTYLE
  2
ISO-25
 70
     0
  3

  4

  5

  6

  7

 40
1.0
 41
2.5
 42
0.625
 43
3.75
 44
1.25
 45
0.0
 46
0.0
 47
0.0
 48
0.0
140
2.5
141
2.5
142
0.0
143
0.03937007874016
144
1.0
145
0.0
146
1.0
147
0.625
 71
     0
 72
     0
 73
     0
 74
     0
 75
     0
 76
     0
 77
     1
 78
     8
170
     0
171
     3
172
     1
173
     0
174
     0
175
     0
176
     0
177
     0
178
     0
  0
DIMSTYLE
  2
STANDARD
 70
     0
  3

  4

  5

  6

  7

 40
1.0
 41
0.18
 42
0.0625
 43
0.38
 44
0.18
 45
0.0
 46
0.0
 47
0.0
 48
0.0
140
0.18
141
0.09
142
0.0
143
25.399999999999999
144
1.0
145
0.0
146
1.0
147
0.09
 71
     0
 72
     0
 73
     1
 74
     1
 75
     0
 76
     0
 77
     0
 78
     0
170
     0
171
     2
172
     0
173
     0
174
     0
175
     0
176
     0
177
     0
178
     0
  0
ENDTAB
  0
ENDSEC
  0
SECTION
  2
BLOCKS
  0
BLOCK
  8
0
  2
$MODEL_SPACE
 70
     0
 10
0.0
 20
0.0
 30
0.0
  3
$MODEL_SPACE
  1

  0
ENDBLK
  5
21
  8
0
  0
BLOCK
 67
     1
  8
0
  2
$PAPER_SPACE
 70
     0
 10
0.0
 20
0.0
 30
0.0
  3
$PAPER_SPACE
  1

  0
ENDBLK
  5
1D
 67
     1
  8
0
  0
BLOCK
  8
0
  2
2
 70
     0
 10
0.0
 20
0.0
 30
0.0
  3
2
  1

  0
INSERT
  5
2C
  8
0
  6
CONTINUOUS
  2
*U3
 10
0.0
 20
0.0
 30
0.0
1001
ACAD
1002
{
1000
R14_HATCH_DATA
1000
2C
1011
1.0
1021
1.2676506002282294E+030
1031
-0.0
1021
0.0
1031
0.0
1011
0.0
1021
1.2676506002282294E+030
1031
-0.0
1021
1.0
1031
0.0
1011
0.0
1021
1.2676506002282294E+030
1031
-0.0
1021
0.0
1031
1.0
1040
0.0
1010
0.0
1020
0.0
1030
1.0
1000
SOLID
1070
     1
1070
     1
1071
        1
1071
        7
1070
     0
1070
     1
1071
        3
1040
0.0000000000000284
1040
0.0
1040
-0.899999999998343
1040
0.2411542731875897
1040
-0.8999999999983572
1040
-0.2411542731875613
1071
        3
1005
2F
1005
2D
1005
30
1070
     0
1070
     1
1040
0.0028941747346077
1071
        1
1040
-0.5303136156475148
1040
-0.0796654556697263
1040
0.0
1002
}
  0
LINE
  5
2D
  8
0
 10
-0.8999999999983572
 20
0.2411542731879876
 30
0.0
 11
-0.8999999999983572
 21
-0.2411542731880445
 31
0.0
  0
LINE
  5
2E
  8
0
 10
-0.9999999999983515
 20
0.0
 30
0.0
 11
0.0
 21
0.0
 31
0.0
  0
LINE
  5
2F
  8
0
 10
-0.8999999999984424
 20
0.2411542731875897
 30
0.0
 11
0.0
 21
0.0
 31
0.0
  0
LINE
  5
30
  8
0
 10
-0.8999999999984424
 20
-0.2411542731875897
 30
0.0
 11
0.0
 21
0.0
 31
0.0
  0
ENDBLK
  5
32
  8
0
  0
BLOCK
  8
0
  2
*U3
 70
     1
 10
0.0
 20
0.0
 30
0.0
  3
*U3
  1

  0
SOLID
  5
9C3
  8
0
  6
CONTINUOUS
 10
-0.5999999999988905
 20
0.0000000000000095
 30
0.0
 11
0.0000000000000284
 21
0.0
 31
0.0
 12
-0.899999999998343
 22
0.2411542731875897
 32
0.0
 13
-0.899999999998343
 23
0.2411542731875897
 33
0.0
210
0.0
220
0.0
230
1.0
  0
SOLID
  5
9C4
  8
0
  6
CONTINUOUS
 10
-0.5999999999988905
 20
0.0000000000000095
 30
0.0
 11
-0.899999999998343
 21
0.2411542731875897
 31
0.0
 12
-0.8999999999983572
 22
-0.2411542731875613
 32
0.0
 13
-0.8999999999983572
 23
-0.2411542731875613
 33
0.0
  0
SOLID
  5
9C5
  8
0
  6
CONTINUOUS
 10
-0.5999999999988905
 20
0.0000000000000095
 30
0.0
 11
-0.8999999999983572
 21
-0.2411542731875613
 31
0.0
 12
0.0000000000000284
 22
0.0
 32
0.0
 13
0.0000000000000284
 23
0.0
 33
0.0
210
0.0
220
0.0
230
1.0
  0
ENDBLK
  5
9C7
  8
0
  0
ENDSEC
  0
SECTION
  2
ENTITIES
  0
LINE
  5
4FC
  8
1外形線
 10
23.733300265316611
 20
21.615977891510511
 30
0.0
 11
2323.7333002653149
 21
21.615977891510621
 31
0.0
  0
LINE
  5
4FD
  8
1外形線
 10
23.733300265316672
 20
391.61597789151051
 30
0.0
 11
2323.7333002653149
 21
391.61597789151068
 31
0.0
  0
LINE
  5
4FE
  8
1外形線
 10
23.733300265316711
 20
737.15897080344894
 30
0.0
 11
2323.7333002653158
 21
737.15897080344405
 31
0.0
  0
LINE
  5
4FF
  8
1外形線
 10
23.733300265316739
 20
1025.158970803448
 30
0.0
 11
2323.7333002653158
 21
1025.158970803448
 31
0.0
  0
LINE
  5
500
  8
1外形線
 10
23.733300265316771
 20
1294.158970803448
 30
0.0
 11
2323.7333002653158
 21
1294.158970803448
 31
0.0
  0
LINE
  5
501
  8
1外形線
 10
263.73330026531647
 20
451.61597789151051
 30
0.0
 11
2263.7333002653149
 21
451.61597789151051
 31
0.0
  0
LINE
  5
502
  8
1外形線
 10
263.73330026531647
 20
452.92107636325881
 30
0.0
 11
2263.7333002653149
 21
452.92107636325881
 31
0.0
  0
LINE
  5
503
  8
1外形線
 10
263.73330026531647
 20
457.77678599293148
 30
0.0
 11
2263.7333002653149
 21
457.77678599293148
 31
0.0
  0
LINE
  5
504
  8
1外形線
 10
263.73330026531647
 20
465.0438690065323
 30
0.0
 11
2263.7333002653149
 21
465.0438690065323
 31
0.0
  0
LINE
  5
505
  8
1外形線
 10
263.73330026531647
 20
478.86597789151051
 30
0.0
 11
2263.7333002653149
 21
478.86597789151051
 31
0.0
  0
LINE
  5
506
  8
1外形線
 10
263.73330026531647
 20
484.36597789151051
 30
0.0
 11
2263.7333002653149
 21
484.36597789151051
 31
0.0
  0
LINE
  5
507
  8
1外形線
 10
263.73330026531647
 20
518.86597789151051
 30
0.0
 11
2263.7333002653149
 21
518.86597789151051
 31
0.0
  0
LINE
  5
508
  8
1外形線
 10
263.73330026531647
 20
524.3659778915104
 30
0.0
 11
2263.7333002653149
 21
524.3659778915104
 31
0.0
  0
LINE
  5
509
  8
1外形線
 10
263.73330026531647
 20
538.18808677648872
 30
0.0
 11
2263.7333002653149
 21
538.18808677648872
 31
0.0
  0
LINE
  5
50A
  8
1外形線
 10
263.73330026531647
 20
545.45516979008846
 30
0.0
 11
2263.7333002653149
 21
545.45516979008846
 31
0.0
  0
LINE
  5
50B
  8
1外形線
 10
263.73330026531647
 20
550.31087941976239
 30
0.0
 11
2263.7333002653149
 21
550.31087941976239
 31
0.0
  0
LINE
  5
50C
  8
1外形線
 10
263.73330026531647
 20
551.6159778915104
 30
0.0
 11
2263.7333002653149
 21
551.6159778915104
 31
0.0
  0
LINE
  5
50D
  8
1外形線
 10
263.7333002653167
 20
872.15897080344837
 30
0.0
 11
2263.7333002653158
 21
872.15897080344837
 31
0.0
  0
LINE
  5
50E
  8
1外形線
 10
263.73330026531647
 20
81.615977891510497
 30
0.0
 11
2263.7333002653149
 21
81.615977891510497
 31
0.0
  0
LINE
  5
50F
  8
1外形線
 10
263.73330026531647
 20
83.149437765722723
 30
0.0
 11
2263.7333002653149
 21
83.149437765722723
 31
0.0
  0
LINE
  5
510
  8
1外形線
 10
263.73330026531647
 20
88.655465649372218
 30
0.0
 11
2263.7333002653149
 21
88.655465649372218
 31
0.0
  0
LINE
  5
511
  8
1外形線
 10
263.73330026531647
 20
96.895818709437677
 30
0.0
 11
2263.7333002653149
 21
96.895818709437677
 31
0.0
  0
LINE
  5
512
  8
1外形線
 10
263.73330026531647
 20
108.8659778915105
 30
0.0
 11
2263.7333002653149
 21
108.8659778915105
 31
0.0
  0
LINE
  5
513
  8
1外形線
 10
263.73330026531647
 20
114.36597789151079
 30
0.0
 11
2263.7333002653149
 21
114.36597789151079
 31
0.0
  0
LINE
  5
514
  8
1外形線
 10
263.73330026531647
 20
148.86597789151051
 30
0.0
 11
2263.7333002653149
 21
148.86597789151051
 31
0.0
  0
LINE
  5
515
  8
1外形線
 10
263.73330026531647
 20
154.36597789151079
 30
0.0
 11
2263.7333002653149
 21
154.36597789151079
 31
0.0
  0
LINE
  5
516
  8
1外形線
 10
263.73330026531647
 20
188.86597789151071
 30
0.0
 11
2263.7333002653149
 21
188.86597789151071
 31
0.0
  0
LINE
  5
517
  8
1外形線
 10
263.73330026531647
 20
194.36597789151079
 30
0.0
 11
2263.7333002653149
 21
194.36597789151079
 31
0.0
  0
LINE
  5
518
  8
1外形線
 10
263.73330026531647
 20
206.3361370735837
 30
0.0
 11
2263.7333002653149
 21
206.3361370735837
 31
0.0
  0
LINE
  5
519
  8
1外形線
 10
263.73330026531647
 20
214.57649013364909
 30
0.0
 11
2263.7333002653149
 21
214.57649013364909
 31
0.0
  0
LINE
  5
51A
  8
1外形線
 10
263.73330026531647
 20
220.08251801729861
 30
0.0
 11
2263.7333002653149
 21
220.08251801729861
 31
0.0
  0
LINE
  5
51B
  8
1外形線
 10
263.73330026531647
 20
221.61597789151051
 30
0.0
 11
2263.7333002653149
 21
221.61597789151051
 31
0.0
  0
LINE
  5
51C
  8
1外形線
 10
263.73330026531647
 20
251.61597789151051
 30
0.0
 11
2263.7333002653149
 21
251.61597789151051
 31
0.0
  0
LINE
  5
51D
  8
1外形線
 10
263.73330026531647
 20
253.149437765724
 30
0.0
 11
2263.7333002653149
 21
253.149437765724
 31
0.0
  0
LINE
  5
51E
  8
1外形線
 10
263.73330026531647
 20
258.65546564937188
 30
0.0
 11
2263.7333002653149
 21
258.65546564937188
 31
0.0
  0
LINE
  5
51F
  8
1外形線
 10
263.73330026531647
 20
266.89581870943789
 30
0.0
 11
2263.7333002653149
 21
266.89581870943789
 31
0.0
  0
LINE
  5
520
  8
1外形線
 10
263.73330026531647
 20
293.41892161666277
 30
0.0
 11
2263.7333002653149
 21
293.41892161666277
 31
0.0
  0
LINE
  5
521
  8
1外形線
 10
263.73330026531647
 20
297.61597789151028
 30
0.0
 11
2263.7333002653149
 21
297.61597789151028
 31
0.0
  0
LINE
  5
522
  8
1外形線
 10
263.73330026531647
 20
300.11597789151079
 30
0.0
 11
2263.7333002653149
 21
300.11597789151079
 31
0.0
  0
LINE
  5
523
  8
1外形線
 10
263.73330026531647
 20
316.33613707358398
 30
0.0
 11
2263.7333002653149
 21
316.33613707358398
 31
0.0
  0
LINE
  5
524
  8
1外形線
 10
263.73330026531647
 20
324.57649013364909
 30
0.0
 11
2263.7333002653149
 21
324.57649013364909
 31
0.0
  0
LINE
  5
525
  8
1外形線
 10
263.73330026531647
 20
330.08251801729722
 30
0.0
 11
2263.7333002653149
 21
330.08251801729722
 31
0.0
  0
LINE
  5
526
  8
1外形線
 10
263.73330026531647
 20
331.61597789151051
 30
0.0
 11
2263.7333002653149
 21
331.61597789151051
 31
0.0
  0
LINE
  5
527
  8
1外形線
 10
263.73330026531647
 20
607.15897080344837
 30
0.0
 11
2263.7333002653149
 21
607.15897080344837
 31
0.0
  0
LINE
  5
528
  8
1外形線
 10
263.73330026531647
 20
608.46406927519536
 30
0.0
 11
2263.7333002653149
 21
608.46406927519536
 31
0.0
  0
LINE
  5
529
  8
1外形線
 10
263.73330026531647
 20
613.31977890487008
 30
0.0
 11
2263.7333002653149
 21
613.31977890487008
 31
0.0
  0
LINE
  5
52A
  8
1外形線
 10
263.73330026531647
 20
620.58686191846959
 30
0.0
 11
2263.7333002653149
 21
620.58686191846959
 31
0.0
  0
LINE
  5
52B
  8
1外形線
 10
263.73330026531647
 20
643.74475724107538
 30
0.0
 11
2263.7333002653149
 21
643.74475724107538
 31
0.0
  0
LINE
  5
52C
  8
1外形線
 10
263.73330026531647
 20
647.15897080344848
 30
0.0
 11
2263.7333002653149
 21
647.15897080344848
 31
0.0
  0
LINE
  5
52D
  8
1外形線
 10
263.73330026531647
 20
649.65897080344826
 30
0.0
 11
2263.7333002653149
 21
649.65897080344826
 31
0.0
  0
LINE
  5
52E
  8
1外形線
 10
263.73330026531647
 20
661.87912998552133
 30
0.0
 11
2263.7333002653149
 21
661.87912998552133
 31
0.0
  0
LINE
  5
52F
  8
1外形線
 10
263.73330026531647
 20
670.11948304558655
 30
0.0
 11
2263.7333002653149
 21
670.11948304558655
 31
0.0
  0
LINE
  5
530
  8
1外形線
 10
263.73330026531647
 20
675.62551092923513
 30
0.0
 11
2263.7333002653149
 21
675.62551092923513
 31
0.0
  0
LINE
  5
531
  8
1外形線
 10
263.73330026531647
 20
677.15897080344837
 30
0.0
 11
2263.7333002653149
 21
677.15897080344837
 31
0.0
  0
LINE
  5
532
  8
1外形線
 10
263.7333002653167
 20
1112.408970803448
 30
0.0
 11
2263.7333002653158
 21
1112.408970803448
 31
0.0
  0
LINE
  5
533
  8
1外形線
 10
263.7333002653167
 20
1117.908970803448
 30
0.0
 11
2263.7333002653158
 21
1117.908970803448
 31
0.0
  0
LINE
  5
534
  8
1外形線
 10
263.7333002653167
 20
831.90897080344826
 30
0.0
 11
2263.7333002653158
 21
831.90897080344644
 31
0.0
  0
LINE
  5
535
  8
1外形線
 10
263.7333002653167
 20
837.40897080344826
 30
0.0
 11
2263.7333002653158
 21
837.40897080344655
 31
0.0
  0
LINE
  5
536
  8
1外形線
 10
263.7333002653167
 20
1085.158970803448
 30
0.0
 11
2263.7333002653158
 21
1085.158970803448
 31
0.0
  0
LINE
  5
537
  8
1外形線
 10
263.7333002653167
 20
1086.2357078727291
 30
0.0
 11
2263.7333002653158
 21
1086.2357078727291
 31
0.0
  0
LINE
  5
538
  8
1外形線
 10
263.7333002653167
 20
1090.4410992484291
 30
0.0
 11
2263.7333002653158
 21
1090.4410992484291
 31
0.0
  0
LINE
  5
539
  8
1外形線
 10
263.7333002653167
 20
1096.7349122155649
 30
0.0
 11
2263.7333002653158
 21
1096.7349122155649
 31
0.0
  0
LINE
  5
53A
  8
1外形線
 10
263.7333002653167
 20
1133.5830293913309
 30
0.0
 11
2263.7333002653158
 21
1133.5830293913309
 31
0.0
  0
LINE
  5
53B
  8
1外形線
 10
263.7333002653167
 20
1139.876842358467
 30
0.0
 11
2263.7333002653158
 21
1139.876842358467
 31
0.0
  0
LINE
  5
53C
  8
1外形線
 10
263.7333002653167
 20
1144.0822337341669
 30
0.0
 11
2263.7333002653158
 21
1144.0822337341669
 31
0.0
  0
LINE
  5
53D
  8
1外形線
 10
263.7333002653167
 20
1145.158970803448
 30
0.0
 11
2263.7333002653158
 21
1145.158970803448
 31
0.0
  0
LINE
  5
53E
  8
1外形線
 10
263.7333002653167
 20
1175.158970803448
 30
0.0
 11
2263.7333002653158
 21
1175.158970803448
 31
0.0
  0
LINE
  5
53F
  8
1外形線
 10
263.7333002653167
 20
1176.2357078727291
 30
0.0
 11
2263.7333002653158
 21
1176.2357078727291
 31
0.0
  0
LINE
  5
540
  8
1外形線
 10
263.7333002653167
 20
1180.4410992484291
 30
0.0
 11
2263.7333002653158
 21
1180.4410992484291
 31
0.0
  0
LINE
  5
541
  8
1外形線
 10
263.7333002653167
 20
1186.7349122155649
 30
0.0
 11
2263.7333002653158
 21
1186.7349122155649
 31
0.0
  0
LINE
  5
542
  8
1外形線
 10
263.7333002653167
 20
1204.744757241074
 30
0.0
 11
2263.7333002653158
 21
1204.744757241074
 31
0.0
  0
LINE
  5
543
  8
1外形線
 10
263.7333002653167
 20
1208.0087508932061
 30
0.0
 11
2263.7333002653158
 21
1208.0087508932061
 31
0.0
  0
LINE
  5
544
  8
1外形線
 10
263.7333002653167
 20
1210.658970803448
 30
0.0
 11
2263.7333002653158
 21
1210.658970803448
 31
0.0
  0
LINE
  5
545
  8
1外形線
 10
263.7333002653167
 20
1220.731079688426
 30
0.0
 11
2263.7333002653158
 21
1220.731079688426
 31
0.0
  0
LINE
  5
546
  8
1外形線
 10
263.7333002653167
 20
1227.998162702027
 30
0.0
 11
2263.7333002653158
 21
1227.998162702027
 31
0.0
  0
LINE
  5
547
  8
1外形線
 10
263.7333002653167
 20
1232.853872331701
 30
0.0
 11
2263.7333002653158
 21
1232.853872331701
 31
0.0
  0
LINE
  5
548
  8
1外形線
 10
263.7333002653167
 20
1234.158970803448
 30
0.0
 11
2263.7333002653158
 21
1234.158970803448
 31
0.0
  0
LINE
  5
549
  8
1外形線
 10
263.73330026531681
 20
798.46406927519558
 30
0.0
 11
2263.7333002653158
 21
798.46406927519558
 31
0.0
  0
LINE
  5
54A
  8
1外形線
 10
263.73330026531681
 20
803.31977890486974
 30
0.0
 11
2263.7333002653158
 21
803.31977890486974
 31
0.0
  0
LINE
  5
54B
  8
1外形線
 10
263.73330026531681
 20
810.58686191847016
 30
0.0
 11
2263.7333002653158
 21
810.58686191847016
 31
0.0
  0
LINE
  5
54C
  8
1外形線
 10
263.7333002653167
 20
870.85387233170081
 30
0.0
 11
2263.7333002653158
 21
870.85387233170081
 31
0.0
  0
LINE
  5
54D
  8
1外形線
 10
263.7333002653167
 20
865.998162702027
 30
0.0
 11
2263.7333002653158
 21
865.998162702027
 31
0.0
  0
LINE
  5
54E
  8
1外形線
 10
263.7333002653167
 20
858.73107968842646
 30
0.0
 11
2263.7333002653158
 21
858.73107968842646
 31
0.0
  0
LINE
  5
54F
  8
1外形線
 10
263.7333002653167
 20
903.46406927519558
 30
0.0
 11
2263.7333002653158
 21
903.46406927519558
 31
0.0
  0
LINE
  5
550
  8
1外形線
 10
263.7333002653167
 20
908.31977890486962
 30
0.0
 11
2263.7333002653158
 21
908.31977890486962
 31
0.0
  0
LINE
  5
551
  8
1外形線
 10
263.7333002653167
 20
915.5868619184705
 30
0.0
 11
2263.7333002653158
 21
915.5868619184705
 31
0.0
  0
LINE
  5
552
  8
1外形線
 10
263.7333002653167
 20
963.62551092923422
 30
0.0
 11
2263.7333002653158
 21
963.62551092923422
 31
0.0
  0
LINE
  5
553
  8
1外形線
 10
263.7333002653167
 20
958.11948304558666
 30
0.0
 11
2263.7333002653158
 21
958.11948304558666
 31
0.0
  0
LINE
  5
554
  8
1外形線
 10
263.7333002653167
 20
949.87912998552144
 30
0.0
 11
2263.7333002653158
 21
949.87912998552144
 31
0.0
  0
LINE
  5
555
  8
1外形線
 10
263.7333002653167
 20
940.14892717366376
 30
0.0
 11
2263.7333002653158
 21
940.14892717366376
 31
0.0
  0
LINE
  5
556
  8
1外形線
 10
263.7333002653167
 20
942.54486094674303
 30
0.0
 11
2263.7333002653158
 21
942.54486094674303
 31
0.0
  0
LINE
  5
557
  8
1外形線
 10
263.7333002653167
 20
936.74475724107526
 30
0.0
 11
2263.7333002653158
 21
936.74475724107526
 31
0.0
  0
LINE
  5
558
  8
1外形線
 10
263.7333002653167
 20
902.15897080344837
 30
0.0
 11
2263.7333002653158
 21
902.15897080344837
 31
0.0
  0
LINE
  5
559
  8
1外形線
 10
263.7333002653167
 20
965.15897080344848
 30
0.0
 11
2263.7333002653158
 21
965.15897080344848
 31
0.0
  0
LINE
  5
55A
  8
1外形線
 10
263.7333002653167
 20
797.15897080344848
 30
0.0
 11
2263.7333002653158
 21
797.15897080344405
 31
0.0
  0
LINE
  5
55B
  8
1外形線
 10
23.733300265316771
 20
1294.158970803448
 30
0.0
 11
23.733300265316611
 21
21.615977891510511
 31
0.0
  0
LINE
  5
55C
  8
1外形線
 10
263.73330026531647
 20
607.15897080344837
 30
0.0
 11
263.73330026531647
 21
677.15897080344837
 31
0.0
  0
ARC
  5
55D
  8
1外形線
 10
168.73330026531639
 20
652.15897080344837
 30
0.0
 40
25.0
 50
0.0
 51
21.575773352206681
  0
ARC
  5
55E
  8
1外形線
 10
118.7333002653164
 20
652.15897080344837
 30
0.0
 40
25.0
 50
158.4242266477932
 51
180.0
  0
ARC
  5
55F
  8
1外形線
 10
168.73330026531639
 20
652.15897080344837
 30
0.0
 40
23.199999999999989
 50
0.0
 51
90.0
  0
ARC
  5
560
  8
1外形線
 10
118.7333002653164
 20
652.15897080344837
 30
0.0
 40
23.199999999999989
 50
90.0
 51
180.0
  0
LINE
  5
561
  8
1外形線
 10
263.73330026531647
 20
331.61597789151051
 30
0.0
 11
263.73330026531647
 21
251.61597789151051
 31
0.0
  0
ARC
  5
562
  8
1外形線
 10
98.733300265316274
 20
276.61597789151068
 30
0.0
 40
22.5
 50
215.2943946766602
 51
231.62705111336001
  0
ARC
  5
563
  8
1外形線
 10
98.733300265316274
 20
276.61597789151068
 30
0.0
 40
25.0
 50
203.42422664778789
 51
224.0757733522108
  0
ARC
  5
564
  8
1外形線
 10
188.73330026531619
 20
276.61597789151051
 30
0.0
 40
22.5
 50
308.3729488866399
 51
324.70560532333968
  0
ARC
  5
565
  8
1外形線
 10
188.73330026531619
 20
276.61597789151051
 30
0.0
 40
25.0
 50
315.92422664778923
 51
336.57577335221208
  0
ARC
  5
566
  8
1外形線
 10
98.733300265316274
 20
276.61597789151068
 30
0.0
 40
25.0
 50
248.42422664778911
 51
270.0
  0
ARC
  5
567
  8
1外形線
 10
98.733300265316274
 20
276.61597789151068
 30
0.0
 40
22.5
 50
232.64565616317901
 51
262.99463823987242
  0
ARC
  5
568
  8
1外形線
 10
98.733300265316274
 20
276.61597789151068
 30
0.0
 40
25.0
 50
225.9242266477892
 51
246.57577335221049
  0
LINE
  5
569
  8
1外形線
 10
80.772788023177966
 20
258.65546564937222
 30
0.0
 11
81.343073124764231
 21
258.65546564937222
 31
0.0
  0
LINE
  5
56A
  8
1外形線
 10
80.772788023177966
 20
258.65546564937222
 30
0.0
 11
80.772788023177966
 21
259.22575075095841
 31
0.0
  0
LINE
  5
56B
  8
1外形線
 10
84.765801900760351
 20
258.97627864701889
 30
0.0
 11
84.739015717687806
 21
258.61597789151051
 31
0.0
  0
LINE
  5
56C
  8
1外形線
 10
84.739015717687806
 20
258.61597789151051
 30
0.0
 11
85.081591374444059
 21
258.73076488302462
 31
0.0
  0
LINE
  5
56D
  8
1外形線
 10
89.013141083243426
 20
253.149437765724
 30
0.0
 11
89.540015816294925
 21
253.36767642582569
 31
0.0
  0
LINE
  5
56E
  8
1外形線
 10
89.013141083243426
 20
253.149437765724
 30
0.0
 11
88.794902423141792
 21
253.6763124987755
 31
0.0
  0
LINE
  5
56F
  8
1外形線
 10
263.73330026531647
 20
221.61597789151051
 30
0.0
 11
263.73330026531647
 21
81.615977891510497
 31
0.0
  0
LINE
  5
570
  8
1外形線
 10
185.9833002653165
 20
252.61597789151051
 30
0.0
 11
181.48330026531639
 21
252.61597789151051
 31
0.0
  0
LINE
  5
571
  8
1外形線
 10
187.73330026531639
 20
257.11597789151051
 30
0.0
 11
179.7333002653165
 21
257.11597789151051
 31
0.0
  0
ARC
  5
572
  8
1外形線
 10
184.98330026531619
 20
253.61597789151051
 30
0.0
 40
1.5
 50
0.0
 51
90.0
  0
LINE
  5
573
  8
1外形線
 10
147.7390192233841
 20
257.11597789151051
 30
0.0
 11
139.7275813072485
 21
257.11597789151051
 31
0.0
  0
ARC
  5
574
  8
1外形線
 10
139.98330026531619
 20
252.61597789151051
 30
0.0
 40
1.0
 50
270.0
 51
0.0
  0
LINE
  5
575
  8
1外形線
 10
111.2275813072505
 20
253.8159778915105
 30
0.0
 11
136.2333002653165
 21
253.8159778915103
 31
0.0
  0
LINE
  5
576
  8
1外形線
 10
107.4833002653164
 20
251.61597789151051
 30
0.0
 11
139.9833002653165
 21
251.61597789151051
 31
0.0
  0
LINE
  5
577
  8
1外形線
  6
CENTER
 10
103.7333002653165
 20
259.65928145487533
 30
0.0
 11
103.7333002653165
 21
249.5044895829746
 31
0.0
  0
LINE
  5
578
  8
1外形線
 10
99.733300265316501
 20
257.11597789151051
 30
0.0
 11
107.7333002653165
 21
257.11597789151051
 31
0.0
  0
LINE
  5
579
  8
1外形線
 10
101.4833002653165
 20
252.61597789151051
 30
0.0
 11
105.9833002653165
 21
252.61597789151051
 31
0.0
  0
ARC
  5
57A
  8
1外形線
 10
102.4833002653162
 20
253.61597789151071
 30
0.0
 40
1.5
 50
90.0
 51
180.0
  0
LINE
  5
57B
  8
1外形線
 10
100.9833002653165
 20
252.61597789151051
 30
0.0
 11
100.9833002653165
 21
253.61597789151051
 31
0.0
  0
LINE
  5
57C
  8
1外形線
 10
101.4833002653165
 20
254.7340118802606
 30
0.0
 11
101.4833002653165
 21
252.61597789151051
 31
0.0
  0
LINE
  5
57D
  8
1外形線
 10
98.733300265316501
 20
251.61597789151051
 30
0.0
 11
99.983300265316501
 21
251.61597789151051
 31
0.0
  0
ARC
  5
57E
  8
1外形線
 10
99.983300265316274
 20
252.61597789151071
 30
0.0
 40
1.0
 50
270.0
 51
0.0
  0
ARC
  5
57F
  8
1外形線
 10
96.29405575120731
 20
256.7652830371639
 30
0.0
 40
2.5
 50
262.99463823987242
 51
349.30879643178139
  0
ARC
  5
580
  8
1外形線
 10
99.733300265316274
 20
256.11597789151068
 30
0.0
 40
1.0
 50
90.0
 51
169.30879643178139
  0
LINE
  5
581
  8
1外形線
 10
102.4833002653165
 20
255.11597789151051
 30
0.0
 11
104.9833002653165
 21
255.11597789151051
 31
0.0
  0
LINE
  5
582
  8
1外形線
 10
106.4833002653164
 20
253.61597789151051
 30
0.0
 11
106.4833002653164
 21
252.61597789151051
 31
0.0
  0
LINE
  5
583
  8
1外形線
 10
105.9833002653165
 20
252.61597789151051
 30
0.0
 11
105.9833002653165
 21
254.7340118802606
 31
0.0
  0
ARC
  5
584
  8
1外形線
 10
107.4833002653162
 20
252.61597789151071
 30
0.0
 40
1.0
 50
180.0
 51
270.0
  0
ARC
  5
585
  8
1外形線
 10
107.7333002653162
 20
256.11597789151068
 30
0.0
 40
1.0
 50
3.275828959789826
 51
90.0
  0
ARC
  5
586
  8
1外形線
 10
111.2275813072504
 20
256.3159778915105
 30
0.0
 40
2.5
 50
183.27582895979631
 51
269.9999999999992
  0
ARC
  5
587
  8
1外形線
 10
104.9833002653162
 20
253.61597789151071
 30
0.0
 40
1.5
 50
0.0
 51
90.0
  0
ARC
  5
588
  8
1外形線
 10
139.72758130724841
 20
256.11597789151051
 30
0.0
 40
1.0
 50
90.0
 51
176.7241710402036
  0
ARC
  5
589
  8
1外形線
 10
136.23330026531619
 20
256.3159778915105
 30
0.0
 40
2.5
 50
270.0
 51
356.7241710402036
  0
LINE
  5
58A
  8
1外形線
 10
179.9833002653165
 20
251.61597789151051
 30
0.0
 11
147.4833002653165
 21
251.61597789151051
 31
0.0
  0
LINE
  5
58B
  8
1外形線
 10
176.239019223382
 20
253.8159778915103
 30
0.0
 11
151.2333002653163
 21
253.8159778915103
 31
0.0
  0
LINE
  5
58C
  8
1外形線
 10
145.98330026531639
 20
252.61597789151051
 30
0.0
 11
141.4833002653165
 21
252.61597789151051
 31
0.0
  0
LINE
  5
58D
  8
1外形線
 10
144.98330026531639
 20
255.11597789151051
 30
0.0
 11
142.4833002653165
 21
255.11597789151051
 31
0.0
  0
LINE
  5
58E
  8
1外形線
 10
140.9833002653165
 20
252.61597789151051
 30
0.0
 11
140.9833002653165
 21
253.61597789151051
 31
0.0
  0
LINE
  5
58F
  8
1外形線
 10
141.4833002653165
 20
252.61597789151051
 30
0.0
 11
141.4833002653165
 21
254.7340118802606
 31
0.0
  0
ARC
  5
590
  8
1外形線
 10
142.48330026531619
 20
253.61597789151051
 30
0.0
 40
1.5
 50
90.0
 51
180.0
  0
ARC
  5
591
  8
1外形線
 10
147.48330026531619
 20
252.61597789151051
 30
0.0
 40
1.0
 50
180.0
 51
270.0
  0
ARC
  5
592
  8
1外形線
 10
144.98330026531619
 20
253.61597789151051
 30
0.0
 40
1.5
 50
0.0
 51
90.0
  0
LINE
  5
593
  8
1外形線
 10
145.98330026531639
 20
254.7340118802606
 30
0.0
 11
145.98330026531639
 21
252.61597789151051
 31
0.0
  0
LINE
  5
594
  8
1外形線
 10
146.4833002653165
 20
252.61597789151051
 30
0.0
 11
146.4833002653165
 21
253.61597789151051
 31
0.0
  0
ARC
  5
595
  8
1外形線
 10
147.7390192233841
 20
256.11597789151051
 30
0.0
 40
1.0
 50
3.2758289597963519
 51
90.0
  0
ARC
  5
596
  8
1外形線
 10
151.23330026531619
 20
256.3159778915105
 30
0.0
 40
2.5
 50
183.27582895979631
 51
270.0
  0
LINE
  5
597
  8
1外形線
  6
CENTER
 10
183.7333002653165
 20
259.65928145487499
 30
0.0
 11
183.7333002653165
 21
249.5044895829744
 31
0.0
  0
ARC
  5
598
  8
1外形線
 10
179.7333002653163
 20
256.11597789151051
 30
0.0
 40
1.0
 50
90.0
 51
176.72417104021011
  0
ARC
  5
599
  8
1外形線
 10
176.239019223382
 20
256.3159778915105
 30
0.0
 40
2.5
 50
270.0000000000008
 51
356.7241710402036
  0
LINE
  5
59A
  8
1外形線
 10
180.9833002653165
 20
253.61597789151051
 30
0.0
 11
180.9833002653165
 21
252.61597789151051
 31
0.0
  0
LINE
  5
59B
  8
1外形線
 10
181.48330026531639
 20
252.61597789151051
 30
0.0
 11
181.48330026531639
 21
254.7340118802606
 31
0.0
  0
ARC
  5
59C
  8
1外形線
 10
179.9833002653163
 20
252.61597789151051
 30
0.0
 40
1.0
 50
270.0
 51
0.0
  0
LINE
  5
59D
  8
1外形線
 10
184.9833002653165
 20
255.11597789151051
 30
0.0
 11
182.48330026531639
 21
255.11597789151051
 31
0.0
  0
ARC
  5
59E
  8
1外形線
 10
182.4833002653163
 20
253.61597789151051
 30
0.0
 40
1.5
 50
90.0
 51
180.0
  0
ARC
  5
59F
  8
1外形線
 10
188.73330026531619
 20
276.61597789151051
 30
0.0
 40
25.0
 50
293.4242266477894
 51
314.07577335221072
  0
LINE
  5
5A0
  8
1外形線
 10
206.69381250745471
 20
258.65546564937188
 30
0.0
 11
206.12352740586849
 21
258.65546564937188
 31
0.0
  0
LINE
  5
5A1
  8
1外形線
 10
202.72758481294491
 20
258.61597789151051
 30
0.0
 11
202.38500915618869
 21
258.73076488302462
 31
0.0
  0
LINE
  5
5A2
  8
1外形線
 10
202.70079862987239
 20
258.97627864701889
 30
0.0
 11
202.72758481294491
 21
258.61597789151051
 31
0.0
  0
ARC
  5
5A3
  8
1外形線
 10
188.73330026531619
 20
276.61597789151051
 30
0.0
 40
25.0
 50
270.0
 51
291.57577335221072
  0
ARC
  5
5A4
  8
1外形線
 10
191.17254477942529
 20
256.76528303716373
 30
0.0
 40
2.5
 50
190.6912035682185
 51
277.00536176012753
  0
LINE
  5
5A5
  8
1外形線
 10
186.48330026531639
 20
252.61597789151051
 30
0.0
 11
186.48330026531639
 21
253.61597789151051
 31
0.0
  0
LINE
  5
5A6
  8
1外形線
 10
185.9833002653165
 20
254.7340118802606
 30
0.0
 11
185.9833002653165
 21
252.61597789151051
 31
0.0
  0
ARC
  5
5A7
  8
1外形線
 10
187.48330026531619
 20
252.61597789151051
 30
0.0
 40
1.0
 50
180.0
 51
270.0
  0
LINE
  5
5A8
  8
1外形線
 10
188.73330026531639
 20
251.61597789151051
 30
0.0
 11
187.4833002653165
 21
251.61597789151051
 31
0.0
  0
ARC
  5
5A9
  8
1外形線
 10
187.73330026531619
 20
256.11597789151051
 30
0.0
 40
1.0
 50
10.69120356821856
 51
90.0
  0
LINE
  5
5AA
  8
1外形線
 10
198.45345944738929
 20
253.149437765724
 30
0.0
 11
198.6716981074909
 21
253.6763124987755
 31
0.0
  0
LINE
  5
5AB
  8
1外形線
 10
198.45345944738929
 20
253.149437765724
 30
0.0
 11
197.92658471433779
 21
253.36767642582549
 31
0.0
  0
ARC
  5
5AC
  8
1外形線
 10
188.73330026531619
 20
276.61597789151051
 30
0.0
 40
22.5
 50
277.00536176012753
 51
307.35434383682082
  0
LINE
  5
5AD
  8
1外形線
 10
206.69381250745471
 20
258.65546564937188
 30
0.0
 11
206.69381250745471
 21
259.22575075095818
 31
0.0
  0
ARC
  5
5AE
  8
1外形線
 10
318.73330026531647
 20
111.6159778915105
 30
0.0
 40
1.8999999999999999
 50
270.0
 51
90.0
  0
ARC
  5
5AF
  8
1外形線
 10
308.73330026531647
 20
111.6159778915105
 30
0.0
 40
1.8999999999999999
 50
90.0
 51
270.0
  0
LINE
  5
5B0
  8
1外形線
 10
318.73330026531647
 20
109.71597789151051
 30
0.0
 11
308.73330026531647
 21
109.71597789151051
 31
0.0
  0
ARC
  5
5B1
  8
1外形線
 10
318.73330026531647
 20
151.61597789151051
 30
0.0
 40
1.8999999999999999
 50
270.0
 51
90.0
  0
LINE
  5
5B2
  8
1外形線
 10
308.73330026531647
 20
113.5159778915104
 30
0.0
 11
318.73330026531647
 21
113.5159778915104
 31
0.0
  0
LINE
  5
5B3
  8
1外形線
 10
308.73330026531647
 20
153.51597789151049
 30
0.0
 11
318.73330026531647
 21
153.51597789151049
 31
0.0
  0
LINE
  5
5B4
  8
1外形線
 10
318.73330026531647
 20
149.71597789151051
 30
0.0
 11
308.73330026531647
 21
149.71597789151051
 31
0.0
  0
ARC
  5
5B5
  8
1外形線
 10
308.73330026531647
 20
151.61597789151051
 30
0.0
 40
1.8999999999999999
 50
90.0
 51
270.0
  0
ARC
  5
5B6
  8
1外形線
 10
418.73330026531647
 20
111.6159778915105
 30
0.0
 40
1.8999999999999999
 50
270.0
 51
90.0
  0
ARC
  5
5B7
  8
1外形線
 10
408.73330026531647
 20
111.6159778915105
 30
0.0
 40
1.8999999999999999
 50
90.0
 51
270.0
  0
LINE
  5
5B8
  8
1外形線
 10
418.73330026531647
 20
109.71597789151051
 30
0.0
 11
408.73330026531647
 21
109.71597789151051
 31
0.0
  0
LINE
  5
5B9
  8
1外形線
 10
408.73330026531647
 20
113.5159778915104
 30
0.0
 11
418.73330026531647
 21
113.5159778915104
 31
0.0
  0
LINE
  5
5BA
  8
1外形線
 10
408.73330026531647
 20
153.51597789151049
 30
0.0
 11
418.73330026531647
 21
153.51597789151049
 31
0.0
  0
LINE
  5
5BB
  8
1外形線
 10
418.73330026531647
 20
149.71597789151051
 30
0.0
 11
408.73330026531647
 21
149.71597789151051
 31
0.0
  0
ARC
  5
5BC
  8
1外形線
 10
408.73330026531647
 20
151.61597789151051
 30
0.0
 40
1.8999999999999999
 50
90.0
 51
270.0
  0
ARC
  5
5BD
  8
1外形線
 10
418.73330026531647
 20
151.61597789151051
 30
0.0
 40
1.8999999999999999
 50
270.0
 51
90.0
  0
ARC
  5
5BE
  8
1外形線
 10
318.73330026531647
 20
191.61597789151071
 30
0.0
 40
1.8999999999999999
 50
270.0
 51
90.0
  0
ARC
  5
5BF
  8
1外形線
 10
308.73330026531647
 20
191.61597789151071
 30
0.0
 40
1.8999999999999999
 50
90.0
 51
270.0
  0
LINE
  5
5C0
  8
1外形線
 10
318.73330026531647
 20
189.7159778915107
 30
0.0
 11
308.73330026531647
 21
189.7159778915107
 31
0.0
  0
LINE
  5
5C1
  8
1外形線
 10
308.73330026531647
 20
193.51597789151069
 30
0.0
 11
318.73330026531647
 21
193.51597789151069
 31
0.0
  0
LINE
  5
5C2
  8
1外形線
 10
418.73330026531647
 20
189.7159778915107
 30
0.0
 11
408.73330026531647
 21
189.7159778915107
 31
0.0
  0
LINE
  5
5C3
  8
1外形線
 10
408.73330026531647
 20
193.51597789151069
 30
0.0
 11
418.73330026531647
 21
193.51597789151069
 31
0.0
  0
ARC
  5
5C4
  8
1外形線
 10
408.73330026531647
 20
191.61597789151071
 30
0.0
 40
1.8999999999999999
 50
90.0
 51
270.0
  0
ARC
  5
5C5
  8
1外形線
 10
418.73330026531647
 20
191.61597789151071
 30
0.0
 40
1.8999999999999999
 50
270.0
 51
90.0
  0
TEXT
  5
5C6
  8
1外形線
 10
75.62722179446277
 20
351.62925529540342
 30
0.0
 40
10.0
  1
SD-140
  7
KANJI
  0
ARC
  5
5C7
  8
1外形線
 10
98.733300265316274
 20
306.61597789151068
 30
0.0
 40
25.0
 50
90.0
 51
111.5757733522108
  0
ARC
  5
5C8
  8
1外形線
 10
98.733300265316274
 20
306.61597789151068
 30
0.0
 40
23.0
 50
90.0
 51
180.0
  0
ARC
  5
5C9
  8
1外形線
 10
99.661132065876899
 20
651.93111703980935
 30
0.0
 40
4.1341157109255899
 50
176.84051474101619
 51
199.02037432786199
  0
LINE
  5
5CA
  8
1外形線
 10
98.940407046503168
 20
648.95186402226182
 30
0.0
 11
93.879746874723395
 21
643.89120385048204
 31
0.0
  0
LINE
  5
5CB
  8
1外形線
 10
93.879746874723267
 20
649.51252419404148
 30
0.0
 11
95.936633745668331
 21
647.45563732309665
 31
0.0
  0
LINE
  5
5CC
  8
1外形線
 10
95.038398737064725
 20
620.58686191846925
 30
0.0
 11
95.565863875144458
 21
620.36837870459772
 31
0.0
  0
ARC
  5
5CD
  8
1外形線
 10
115.7333002653164
 20
629.15897080344848
 30
0.0
 40
20.0
 50
180.0
 51
208.93936192953811
  0
ARC
  5
5CE
  8
1外形線
 10
115.7333002653164
 20
629.15897080344848
 30
0.0
 40
22.0
 50
203.55144786891779
 51
223.9485521310813
  0
ARC
  5
5CF
  8
1外形線
 10
98.733300265316274
 20
306.61597789151068
 30
0.0
 40
25.0
 50
158.42422664779349
 51
180.0
  0
LINE
  5
5D0
  8
1外形線
 10
76.233300265316501
 20
292.46917414835752
 30
0.0
 11
76.233300265316387
 21
276.61597789151051
 31
0.0
  0
LINE
  5
5D1
  8
1外形線
 10
73.733300265316501
 20
293.00470805428972
 30
0.0
 11
73.733300265316501
 21
276.61597789151051
 31
0.0
  0
ARC
  5
5D2
  8
1外形線
 10
98.733300265316274
 20
276.61597789151068
 30
0.0
 40
25.0
 50
180.0
 51
201.5757733522064
  0
ARC
  5
5D3
  8
1外形線
 10
98.733300265316274
 20
276.61597789151068
 30
0.0
 40
22.5
 50
180.0
 51
214.25315800118059
  0
LINE
  5
5D4
  8
1外形線
 10
75.266760139528486
 20
266.89581870943789
 30
0.0
 11
75.484998799630119
 21
267.42269344248928
 31
0.0
  0
LINE
  5
5D5
  8
1外形線
 10
75.266760139528486
 20
266.89581870943789
 30
0.0
 11
75.793634872579986
 21
266.6775800493362
 31
0.0
  0
LINE
  5
5D6
  8
1外形線
 10
80.002576840953424
 20
263.61597789151068
 30
0.0
 11
80.36893259310952
 21
263.61597789151051
 31
0.0
  0
LINE
  5
5D7
  8
1外形線
 10
80.135728897450434
 20
263.95184194715478
 30
0.0
 11
80.002576840953424
 21
263.61597789151068
 31
0.0
  0
ARC
  5
5D8
  8
1外形線
 10
82.701464681247643
 20
298.00470805428989
 30
0.0
 40
1.5
 50
133.65157254788389
 51
223.61905544422061
  0
ARC
  5
5D9
  8
1外形線
 10
79.733300265316274
 20
301.11597789151068
 30
0.0
 40
1.1999999999999991
 50
314.99963572324049
 51
125.00014919902431
  0
ARC
  5
5DA
  8
1外形線
 10
79.933300265316319
 20
301.42752037164809
 30
0.0
 40
1.0
 50
304.99974680093641
 51
114.9999999999702
  0
LINE
  5
5DB
  8
1外形線
 10
82.068667816606833
 20
294.03345180829268
 30
0.0
 11
81.251874896482676
 21
292.36433816189492
 31
0.0
  0
ARC
  5
5DC
  8
1外形線
 10
80.533300265316342
 20
292.71597789151059
 30
0.0
 40
0.8
 50
153.92484866374579
 51
333.9248486637527
  0
LINE
  5
5DD
  8
1外形線
 10
80.631518554274265
 20
294.73673126752408
 30
0.0
 11
79.814725634150221
 21
293.06761762112632
 31
0.0
  0
ARC
  5
5DE
  8
1外形線
 10
79.733300265316274
 20
295.17628092954408
 30
0.0
 40
1.0
 50
333.92457102530011
 51
135.0
  0
ARC
  5
5DF
  8
1外形線
 10
79.733300265316274
 20
295.17628092954408
 30
0.0
 40
2.6000000000000001
 50
333.92474187972971
 51
43.619045894561118
  0
LINE
  5
5E0
  8
1外形線
 10
78.127286243533462
 20
303.40960361551959
 30
0.0
 11
76.474439116235629
 21
302.25226759747733
 31
0.0
  0
LINE
  5
5E1
  8
1外形線
 10
74.026193484129934
 20
299.82308467269718
 30
0.0
 11
75.936633745668104
 21
297.91264441115891
 31
0.0
  0
ARC
  5
5E2
  8
1外形線
 10
76.290187136261096
 20
298.26619780175218
 30
0.0
 40
0.5
 50
225.0
 51
304.99999999999932
  0
ARC
  5
5E3
  8
1外形線
 10
74.733300265316274
 20
300.53019145388379
 30
0.0
 40
1.0
 50
180.0
 51
225.0
  0
ARC
  5
5E4
  8
1外形線
 10
76.733300265316274
 20
302.14209170347698
 30
0.0
 40
1.0
 50
180.0
 51
294.9999999999992
  0
ARC
  5
5E5
  8
1外形線
 10
76.933300265316319
 20
301.59694596204639
 30
0.0
 40
0.8
 50
125.00000000000129
 51
304.9996835010744
  0
LINE
  5
5E6
  8
1外形線
 10
75.733300265316501
 20
306.61597789151051
 30
0.0
 11
75.733300265316501
 21
302.14209170347681
 31
0.0
  0
LINE
  5
5E7
  8
1外形線
 10
73.733300265316501
 20
306.61597789151051
 30
0.0
 11
73.733300265316501
 21
300.53019145388362
 31
0.0
  0
ARC
  5
5E8
  8
1外形線
 10
74.733300265316274
 20
293.00470805428972
 30
0.0
 40
1.0
 50
135.0
 51
180.0
  0
ARC
  5
5E9
  8
1外形線
 10
77.733300265316274
 20
292.46917414835752
 30
0.0
 40
1.5
 50
135.0
 51
180.0
  0
ARC
  5
5EA
  8
1外形線
 10
79.733300265316274
 20
301.11597789151068
 30
0.0
 40
2.8000000000000109
 50
313.65153548554781
 51
125.0001278848806
  0
LINE
  5
5EB
  8
1外形線
 10
80.581828402740328
 20
300.26744975408673
 30
0.0
 11
74.026193484129934
 21
293.71181483547628
 31
0.0
  0
LINE
  5
5EC
  8
1外形線
 10
76.672640093536614
 20
293.52983432013718
 30
0.0
 11
79.026193484129834
 21
295.88338771073057
 31
0.0
  0
LINE
  5
5ED
  8
1外形線
 10
76.576975354436826
 20
297.85662177960762
 30
0.0
 11
80.506873081704697
 21
300.60836579263372
 31
0.0
  0
LINE
  5
5EE
  8
1外形線
 10
79.510682003575738
 20
302.33382815868453
 30
0.0
 11
77.155918527057082
 21
301.23578391644008
 31
0.0
  0
LINE
  5
5EF
  8
1外形線
 10
79.045008541695182
 20
302.09896034465731
 30
0.0
 11
77.392157794434496
 21
300.94162179188987
 31
0.0
  0
ARC
  5
5F0
  8
1外形線
 10
98.733300265316274
 20
306.61597789151068
 30
0.0
 40
25.0
 50
113.4242266477909
 51
134.0757733522108
  0
LINE
  5
5F1
  8
1外形線
 10
80.772788023177966
 20
324.5764901336492
 30
0.0
 11
81.343073124764459
 21
324.5764901336492
 31
0.0
  0
LINE
  5
5F2
  8
1外形線
 10
80.772788023177966
 20
324.5764901336492
 30
0.0
 11
80.772788023177966
 21
324.00620503206233
 31
0.0
  0
LINE
  5
5F3
  8
1外形線
 10
89.013141083242985
 20
330.08251801729728
 30
0.0
 11
88.794902423140996
 21
329.55564328424521
 31
0.0
  0
LINE
  5
5F4
  8
1外形線
 10
89.013141083242985
 20
330.08251801729728
 30
0.0
 11
89.540015816294826
 21
329.86427935719553
 31
0.0
  0
LINE
  5
5F5
  8
1外形線
 10
75.266760139528941
 20
316.33613707358421
 30
0.0
 11
75.484998799630802
 21
315.8092623405318
 31
0.0
  0
LINE
  5
5F6
  8
1外形線
 10
75.266760139528941
 20
316.33613707358421
 30
0.0
 11
75.793634872580895
 21
316.55437573368579
 31
0.0
  0
ARC
  5
5F7
  8
1外形線
 10
98.733300265316274
 20
306.61597789151068
 30
0.0
 40
25.0
 50
135.92422664778979
 51
156.5757733522058
  0
LINE
  5
5F8
  8
1外形線
 10
93.733300265316501
 20
629.15897683501419
 30
0.0
 11
93.733300265316501
 21
643.5376504598886
 31
0.0
  0
LINE
  5
5F9
  8
1外形線
 10
95.038398737063943
 20
620.58686191846959
 30
0.0
 11
95.256881950936048
 21
621.11432705655045
 31
0.0
  0
ARC
  5
5FA
  8
1外形線
 10
115.7333002653164
 20
629.15897080344848
 30
0.0
 40
22.0
 50
180.0
 51
201.44855213108431
  0
ARC
  5
5FB
  8
1外形線
 10
94.233300265316487
 20
649.86607758463492
 30
0.0
 40
0.5
 50
180.0
 51
225.0
  0
LINE
  5
5FC
  8
1外形線
 10
95.533300265316683
 20
652.15897080344837
 30
0.0
 11
95.533300265316683
 21
652.03916323794738
 31
0.0
  0
LINE
  5
5FD
  8
1外形線
 10
93.733300265316501
 20
652.15896317405395
 30
0.0
 11
93.733300265316501
 21
649.86607758463492
 31
0.0
  0
ARC
  5
5FE
  8
1外形線
 10
94.233300265316487
 20
643.5376504598886
 30
0.0
 40
0.5
 50
135.0
 51
180.0
  0
LINE
  5
5FF
  8
1外形線
 10
263.73330026531647
 20
551.6159778915104
 30
0.0
 11
263.73330026531647
 21
451.61597789151051
 31
0.0
  0
LINE
  5
600
  8
1外形線
 10
188.73330026531639
 20
329.61597789151051
 30
0.0
 11
143.73330026531639
 21
329.61597789151051
 31
0.0
  0
LINE
  5
601
  8
1外形線
 10
188.73330026531639
 20
331.61597789151051
 30
0.0
 11
143.73330026531639
 21
331.61597789151051
 31
0.0
  0
LINE
  5
602
  8
1外形線
 10
98.733300265316501
 20
331.61597789151051
 30
0.0
 11
143.73330026531639
 21
331.61597789151051
 31
0.0
  0
LINE
  5
603
  8
1外形線
 10
98.733300265316501
 20
329.61597789151051
 30
0.0
 11
143.73330026531639
 21
329.61597789151051
 31
0.0
  0
ARC
  5
604
  8
1外形線
 10
188.73330026531619
 20
306.61597789151051
 30
0.0
 40
25.0
 50
0.0
 51
21.575773352206419
  0
ARC
  5
605
  8
1外形線
 10
188.73330026531619
 20
306.61597789151051
 30
0.0
 40
23.0
 50
0.0
 51
90.0
  0
LINE
  5
606
  8
1外形線
 10
213.7333002653165
 20
293.00470805428972
 30
0.0
 11
213.7333002653165
 21
276.61597789151051
 31
0.0
  0
LINE
  5
607
  8
1外形線
 10
211.2333002653165
 20
292.46917414835718
 30
0.0
 11
211.2333002653165
 21
276.61597789151051
 31
0.0
  0
ARC
  5
608
  8
1外形線
 10
188.73330026531619
 20
276.61597789151051
 30
0.0
 40
22.5
 50
325.74684199881921
 51
0.0
  0
LINE
  5
609
  8
1外形線
 10
207.46402368967929
 20
263.61597789151068
 30
0.0
 11
207.0976679375234
 21
263.61597789151051
 31
0.0
  0
LINE
  5
60A
  8
1外形線
 10
207.33087163318231
 20
263.95184194715478
 30
0.0
 11
207.46402368967929
 21
263.61597789151068
 31
0.0
  0
ARC
  5
60B
  8
1外形線
 10
188.73330026531619
 20
276.61597789151051
 30
0.0
 40
25.0
 50
338.4242266477936
 51
0.0
  0
LINE
  5
60C
  8
1外形線
 10
212.1998403911042
 20
266.89581870943789
 30
0.0
 11
211.9816017310026
 21
267.42269344248928
 31
0.0
  0
LINE
  5
60D
  8
1外形線
 10
212.1998403911042
 20
266.89581870943789
 30
0.0
 11
211.67296565805279
 21
266.6775800493362
 31
0.0
  0
ARC
  5
60E
  8
1外形線
 10
207.73330026531619
 20
301.11597789151051
 30
0.0
 40
1.1999999999999991
 50
54.999850800975629
 51
225.0003642767594
  0
LINE
  5
60F
  8
1外形線
 10
210.88962517619589
 20
297.85662177960762
 30
0.0
 11
206.95972744892831
 21
300.60836579263349
 31
0.0
  0
ARC
  5
610
  8
1外形線
 10
207.73330026531619
 20
301.11597789151051
 30
0.0
 40
2.8000000000000109
 50
54.999872115119352
 51
226.3484645144521
  0
LINE
  5
611
  8
1外形線
 10
206.88477212789249
 20
300.26744975408673
 30
0.0
 11
213.44040704650291
 21
293.71181483547628
 31
0.0
  0
ARC
  5
612
  8
1外形線
 10
207.73330026531619
 20
295.17628092954391
 30
0.0
 40
1.0
 50
45.0
 51
206.07542897469949
  0
ARC
  5
613
  8
1外形線
 10
204.76513584938479
 20
298.00470805428989
 30
0.0
 40
1.5
 50
316.38094455577919
 51
46.348427452116049
  0
ARC
  5
614
  8
1外形線
 10
207.5333002653162
 20
301.42752037164809
 30
0.0
 40
1.0
 50
188.548113857803
 51
235.00025319906351
  0
LINE
  5
615
  8
1外形線
 10
205.3979327140261
 20
294.03345180829251
 30
0.0
 11
206.2147256341502
 21
292.36433816189458
 31
0.0
  0
ARC
  5
616
  8
1外形線
 10
206.93330026531629
 20
292.71597789151059
 30
0.0
 40
0.8
 50
206.07515133624719
 51
26.075151336254049
  0
LINE
  5
617
  8
1外形線
 10
206.83508197635859
 20
294.73673126752408
 30
0.0
 11
207.65187489648261
 21
293.06761762112632
 31
0.0
  0
ARC
  5
618
  8
1外形線
 10
207.73330026531619
 20
295.17628092954391
 30
0.0
 40
2.6000000000000001
 50
136.3809541054388
 51
206.07525812027009
  0
LINE
  5
619
  8
1外形線
 10
209.33931428709931
 20
303.40960361551942
 30
0.0
 11
210.9921614143972
 21
302.25226759747733
 31
0.0
  0
ARC
  5
61A
  8
1外形線
 10
211.17641339437151
 20
298.2661978017519
 30
0.0
 40
0.5
 50
235.0000000000006
 51
315.0
  0
LINE
  5
61B
  8
1外形線
 10
213.44040704650291
 20
299.82308467269718
 30
0.0
 11
211.5299667849649
 21
297.91264441115868
 31
0.0
  0
ARC
  5
61C
  8
1外形線
 10
212.73330026531619
 20
300.53019145388379
 30
0.0
 40
1.0
 50
315.0
 51
0.0
  0
ARC
  5
61D
  8
1外形線
 10
210.5333002653162
 20
301.59694596204622
 30
0.0
 40
0.8
 50
235.00031649892529
 51
54.999999999998643
  0
ARC
  5
61E
  8
1外形線
 10
210.39025731346621
 20
302.12373977012271
 30
0.0
 40
1.3431683304680051
 50
280.79558057153918
 51
0.7828661692530322
  0
LINE
  5
61F
  8
1外形線
 10
208.42159198893771
 20
302.09896034465709
 30
0.0
 11
210.07444273619851
 21
300.94162179188987
 31
0.0
  0
LINE
  5
620
  8
1外形線
 10
211.7333002653165
 20
306.61597789151051
 30
0.0
 11
211.7333002653165
 21
302.14209170347681
 31
0.0
  0
LINE
  5
621
  8
1外形線
 10
213.7333002653165
 20
306.61597789151051
 30
0.0
 11
213.7333002653165
 21
300.53019145388362
 31
0.0
  0
LINE
  5
622
  8
1外形線
 10
210.79396043709619
 20
293.52983432013718
 30
0.0
 11
208.44040704650291
 21
295.88338771073057
 31
0.0
  0
ARC
  5
623
  8
1外形線
 10
209.73330026531619
 20
292.46917414835752
 30
0.0
 40
1.5
 50
0.0
 51
45.0
  0
ARC
  5
624
  8
1外形線
 10
212.73330026531619
 20
293.00470805428972
 30
0.0
 40
1.0
 50
0.0
 51
45.0
  0
ARC
  5
625
  8
1外形線
 10
188.73330026531619
 20
306.61597789151051
 30
0.0
 40
25.0
 50
23.42422664779437
 51
44.075773352210199
  0
LINE
  5
626
  8
1外形線
 10
206.69381250745499
 20
324.57649013364909
 30
0.0
 11
206.12352740586829
 21
324.57649013364909
 31
0.0
  0
LINE
  5
627
  8
1外形線
 10
206.69381250745499
 20
324.57649013364909
 30
0.0
 11
206.69381250745499
 21
324.00620503206221
 31
0.0
  0
LINE
  5
628
  8
1外形線
 10
198.45345944739
 20
330.08251801729722
 30
0.0
 11
198.67169810749181
 21
329.55564328424509
 31
0.0
  0
LINE
  5
629
  8
1外形線
 10
198.45345944739
 20
330.08251801729722
 30
0.0
 11
197.92658471433799
 21
329.86427935719541
 31
0.0
  0
ARC
  5
62A
  8
1外形線
 10
188.73330026531619
 20
306.61597789151051
 30
0.0
 40
25.0
 50
45.924226647789212
 51
66.575773352208984
  0
ARC
  5
62B
  8
1外形線
 10
188.73330026531619
 20
306.61597789151051
 30
0.0
 40
25.0
 50
68.424226647789183
 51
90.0
  0
LINE
  5
62C
  8
1外形線
 10
212.199840391104
 20
316.33613707358398
 30
0.0
 11
211.98160173100189
 21
315.8092623405318
 31
0.0
  0
LINE
  5
62D
  8
1外形線
 10
212.199840391104
 20
316.33613707358398
 30
0.0
 11
211.67296565805199
 21
316.55437573368579
 31
0.0
  0
ARC
  5
62E
  8
1外形線
 10
171.73330026531639
 20
629.15897080344848
 30
0.0
 40
20.0
 50
312.9337884704662
 51
329.9147033807476
  0
LINE
  5
62F
  8
1外形線
 10
185.41138492655409
 20
614.15897080344826
 30
0.0
 11
185.06078867901729
 21
614.24662516023523
 31
0.0
  0
LINE
  5
630
  8
1外形線
 10
185.3563551814799
 20
614.51614406981548
 30
0.0
 11
185.41138492655409
 21
614.15897080344826
 31
0.0
  0
ARC
  5
631
  8
1外形線
 10
171.73330026531639
 20
629.15897080344848
 30
0.0
 40
22.0
 50
293.55144786891708
 51
313.94855213108588
  0
ARC
  5
632
  8
1外形線
 10
171.73330026531639
 20
629.15897080344848
 30
0.0
 40
20.0
 50
270.0
 51
311.7878537807523
  0
ARC
  5
633
  8
1外形線
 10
171.73330026531639
 20
629.15897080344848
 30
0.0
 40
22.0
 50
270.0
 51
291.44855213108468
  0
LINE
  5
634
  8
1外形線
 10
166.4833002653165
 20
607.65897080344837
 30
0.0
 11
166.4833002653165
 21
609.15897080344826
 31
0.0
  0
LINE
  5
635
  8
1外形線
 10
160.9833002653165
 20
609.15897080344848
 30
0.0
 11
160.9833002653165
 21
607.65897080344837
 31
0.0
  0
LINE
  5
636
  8
1外形線
 10
165.9833002653165
 20
608.15897080344894
 30
0.0
 11
165.9833002653163
 21
610.27700479219902
 31
0.0
  0
LINE
  5
637
  8
1外形線
 10
161.4833002653163
 20
610.27700479219561
 30
0.0
 11
161.48330026531639
 21
608.15897080344894
 31
0.0
  0
LINE
  5
638
  8
1外形線
 10
126.4833002653165
 20
609.15897080344848
 30
0.0
 11
126.4833002653165
 21
607.65897080344837
 31
0.0
  0
LINE
  5
639
  8
1外形線
 10
125.9833002653165
 20
610.27700479219493
 30
0.0
 11
125.9833002653165
 21
608.15897080344826
 31
0.0
  0
LINE
  5
63A
  8
1外形線
 10
120.9833002653164
 20
607.65897080344837
 30
0.0
 11
120.9833002653164
 21
609.15897080344826
 31
0.0
  0
LINE
  5
63B
  8
1外形線
 10
121.4833002653165
 20
608.15897080344826
 30
0.0
 11
121.4833002653165
 21
610.27700479219834
 31
0.0
  0
LINE
  5
63C
  8
1外形線
  6
CENTER
 10
123.7333002653165
 20
615.20227436681319
 30
0.0
 11
123.7333002653165
 21
605.04748249491263
 31
0.0
  0
LINE
  5
63D
  8
1外形線
  6
CENTER
 10
163.73330026531639
 20
615.20227436681319
 30
0.0
 11
163.73330026531639
 21
605.04748249491263
 31
0.0
  0
ARC
  5
63E
  8
1外形線
 10
115.7333002653164
 20
629.15897080344848
 30
0.0
 40
22.0
 50
248.5514478689152
 51
270.0
  0
ARC
  5
63F
  8
1外形線
 10
115.7333002653164
 20
629.15897080344848
 30
0.0
 40
20.0
 50
228.2121462192475
 51
270.0
  0
LINE
  5
640
  8
1外形線
 10
143.73330026531639
 20
607.15897080344837
 30
0.0
 11
126.9833002653165
 21
607.15897080344837
 31
0.0
  0
LINE
  5
641
  8
1外形線
 10
115.7332948705199
 20
607.15897080344837
 30
0.0
 11
120.4833002653165
 21
607.15897080344837
 31
0.0
  0
ARC
  5
642
  8
1外形線
 10
126.9833002653165
 20
607.65897080344837
 30
0.0
 40
0.5
 50
180.0
 51
270.0
  0
ARC
  5
643
  8
1外形線
 10
120.4833002653165
 20
607.65897080344837
 30
0.0
 40
0.5
 50
270.0
 51
0.0
  0
LINE
  5
644
  8
1外形線
 10
125.9833002653165
 20
608.15897080344826
 30
0.0
 11
121.4833002653165
 21
608.15897080344826
 31
0.0
  0
LINE
  5
645
  8
1外形線
 10
161.48330026531639
 20
608.15897080344894
 30
0.0
 11
165.9833002653165
 21
608.15897080344894
 31
0.0
  0
ARC
  5
646
  8
1外形線
 10
160.48330026531639
 20
607.65897080344837
 30
0.0
 40
0.5
 50
270.0
 51
0.0
  0
LINE
  5
647
  8
1外形線
 10
160.48330026531639
 20
607.15897080344837
 30
0.0
 11
143.73330026531639
 21
607.15897080344837
 31
0.0
  0
ARC
  5
648
  8
1外形線
 10
166.9833002653165
 20
607.65897080344837
 30
0.0
 40
0.5
 50
180.0
 51
270.0
  0
LINE
  5
649
  8
1外形線
 10
171.7333056601131
 20
607.15897080344837
 30
0.0
 11
166.9833002653165
 21
607.15897080344837
 31
0.0
  0
LINE
  5
64A
  8
1外形線
 10
143.73330026531639
 20
609.15897080344848
 30
0.0
 11
131.33521232976369
 21
609.15897080344848
 31
0.0
  0
LINE
  5
64B
  8
1外形線
 10
95.733300265316501
 20
629.15896477188244
 30
0.0
 11
95.733300265316501
 21
643.45186402226182
 31
0.0
  0
ARC
  5
64C
  8
1外形線
 10
116.2333002653165
 20
611.65897080344837
 30
0.0
 40
2.5
 50
270.0
 51
0.0
  0
LINE
  5
64D
  8
1外形線
 10
115.7333002653164
 20
609.15897080344848
 30
0.0
 11
116.2333002653165
 21
609.15897080344848
 31
0.0
  0
LINE
  5
64E
  8
1外形線
 10
98.230654110889617
 20
619.48129662041742
 30
0.0
 11
98.067231093030813
 21
619.15897080344837
 31
0.0
  0
LINE
  5
64F
  8
1外形線
 10
98.067231093030813
 20
619.15897080344837
 30
0.0
 11
98.427698445864706
 21
619.13319673524904
 31
0.0
  0
ARC
  5
650
  8
1外形線
 10
115.7333002653164
 20
629.15897080344848
 30
0.0
 40
20.0
 50
210.08529661925229
 51
227.06621152953369
  0
LINE
  5
651
  8
1外形線
 10
102.110245349153
 20
614.51614406981548
 30
0.0
 11
102.0552156040789
 21
614.15897080344826
 31
0.0
  0
LINE
  5
652
  8
1外形線
 10
102.0552156040789
 20
614.15897080344826
 30
0.0
 11
102.4058118516156
 21
614.24662516023523
 31
0.0
  0
ARC
  5
653
  8
1外形線
 10
115.7333002653164
 20
629.15897080344848
 30
0.0
 40
22.0
 50
226.05144786891401
 51
246.44855213108289
  0
LINE
  5
654
  8
1外形線
 10
107.16119138033829
 20
608.46406927519536
 30
0.0
 11
106.9427081664661
 21
608.99153441327621
 31
0.0
  0
LINE
  5
655
  8
1外形線
 10
107.1611913803392
 20
608.4640692751957
 30
0.0
 11
107.6886565184189
 21
608.68255248906735
 31
0.0
  0
LINE
  5
656
  8
1外形線
 10
99.894108366738436
 20
613.31977890487008
 30
0.0
 11
100.4650325181221
 21
613.31977890487008
 31
0.0
  0
LINE
  5
657
  8
1外形線
 10
99.894108366737527
 20
613.31977890487008
 30
0.0
 11
99.894108366737527
 21
613.89070305625523
 31
0.0
  0
ARC
  5
658
  8
1外形線
 10
124.9833002653164
 20
609.15897080344848
 30
0.0
 40
1.5
 50
0.0
 51
90.00000000000081
  0
ARC
  5
659
  8
1外形線
 10
122.4833002653165
 20
609.15897080344826
 30
0.0
 40
1.5
 50
90.0
 51
180.0
  0
LINE
  5
65A
  8
1外形線
 10
122.4833002653165
 20
610.65897080344826
 30
0.0
 11
124.9833002653164
 21
610.65897080344837
 31
0.0
  0
ARC
  5
65B
  8
1外形線
 10
119.7333002653165
 20
611.65897080344837
 30
0.0
 40
1.0
 50
90.0
 51
180.0
  0
LINE
  5
65C
  8
1外形線
 10
119.7333002653165
 20
612.65897080344848
 30
0.0
 11
127.7333002653165
 21
612.65897080344848
 31
0.0
  0
ARC
  5
65D
  8
1外形線
 10
131.23330026531539
 20
611.65897080344837
 30
0.0
 40
2.5
 50
180.0
 51
270.0
  0
ARC
  5
65E
  8
1外形線
 10
127.7333002653165
 20
611.65897080344837
 30
0.0
 40
1.0
 50
0.0
 51
90.0
  0
LINE
  5
65F
  8
1外形線
 10
97.446653935667513
 20
651.82026383125594
 30
0.0
 11
96.204494855165393
 21
651.36815489972969
 31
0.0
  0
LINE
  5
660
  8
1外形線
 10
97.891280121990889
 20
650.59866342423425
 30
0.0
 11
96.605613358478166
 21
650.13071899113038
 31
0.0
  0
ARC
  5
661
  8
1外形線
 10
96.383300265316606
 20
650.74151919464111
 30
0.0
 40
0.65
 50
105.92050985039999
 51
289.99999999996402
  0
ARC
  5
662
  8
1外形線
 10
101.2955706648731
 20
647.40897080344837
 30
0.0
 40
1.5
 50
143.69345129004961
 51
216.30654492755821
  0
ARC
  5
663
  8
1外形線
 10
98.883300265316606
 20
643.30897080344835
 30
0.0
 40
0.65
 50
142.06390775176499
 51
322.0639077517651
  0
LINE
  5
664
  8
1外形線
 10
100.047303302082
 20
643.74497187041993
 30
0.0
 11
99.395953297445985
 21
642.90936240933161
 31
0.0
  0
LINE
  5
665
  8
1外形線
 10
99.021997237823342
 20
644.54418865865341
 30
0.0
 11
98.370647233187114
 21
643.70857919756509
 31
0.0
  0
ARC
  5
666
  8
1外形線
 10
97.233300265316501
 20
643.45186402226182
 30
0.0
 40
1.5
 50
134.9999999999994
 51
180.0
  0
ARC
  5
667
  8
1外形線
 10
98.233300265316501
 20
645.15897080344837
 30
0.0
 40
2.3000000000000109
 50
322.0639077518058
 51
36.306548052431282
  0
ARC
  5
668
  8
1外形線
 10
98.233300265316501
 20
645.15897080344837
 30
0.0
 40
1.0
 50
322.0639077517726
 51
134.9999999999919
  0
LINE
  5
669
  8
1外形線
 10
97.526193484130062
 20
645.86607758463492
 30
0.0
 11
96.172640093536728
 21
644.51252419404159
 31
0.0
  0
LINE
  5
66A
  8
1外形線
 10
96.576975354437053
 20
647.39961469154559
 30
0.0
 11
99.10576365332723
 21
649.17029132096491
 31
0.0
  0
ARC
  5
66B
  8
1外形線
 10
96.290187136261551
 20
647.80919071368987
 30
0.0
 40
0.5
 50
225.0
 51
304.99999999999932
  0
ARC
  5
66C
  8
1外形線
 10
98.233300265316501
 20
649.65897080344837
 30
0.0
 40
1.0
 50
314.99978143394623
 51
110.0001452290618
  0
ARC
  5
66D
  8
1外形線
 10
98.233300265316501
 20
649.65897080344837
 30
0.0
 40
2.3000000000000109
 50
323.6934544143881
 51
110.0000000000006
  0
LINE
  5
66E
  8
1外形線
 10
164.9833002653165
 20
610.65897080344826
 30
0.0
 11
162.48330026531639
 21
610.65897080344837
 31
0.0
  0
LINE
  5
66F
  8
1外形線
 10
167.73330026531639
 20
612.65897080344848
 30
0.0
 11
159.7333002653165
 21
612.65897080344848
 31
0.0
  0
ARC
  5
670
  8
1外形線
 10
156.2333002653175
 20
611.65897080344837
 30
0.0
 40
2.5
 50
270.0
 51
0.0
  0
ARC
  5
671
  8
1外形線
 10
162.48330026531639
 20
609.15897080344848
 30
0.0
 40
1.5
 50
89.999999999999204
 51
180.0
  0
ARC
  5
672
  8
1外形線
 10
159.7333002653165
 20
611.65897080344837
 30
0.0
 40
1.0
 50
90.0
 51
180.0
  0
LINE
  5
673
  8
1外形線
 10
156.2333002653175
 20
609.15897080344848
 30
0.0
 11
143.73330026531639
 21
609.15897080344848
 31
0.0
  0
LINE
  5
674
  8
1外形線
 10
180.30540915029391
 20
608.4640692751957
 30
0.0
 11
179.77794401221399
 21
608.68255248906735
 31
0.0
  0
LINE
  5
675
  8
1外形線
 10
180.30540915029471
 20
608.46406927519536
 30
0.0
 11
180.52389236416681
 21
608.99153441327621
 31
0.0
  0
LINE
  5
676
  8
1外形線
 10
171.73330026531639
 20
609.15897080344848
 30
0.0
 11
171.2333002653165
 21
609.15897080344848
 31
0.0
  0
LINE
  5
677
  8
1外形線
 10
171.73330026531639
 20
609.15897080344848
 30
0.0
 11
171.2333002653165
 21
609.15897080344848
 31
0.0
  0
ARC
  5
678
  8
1外形線
 10
164.9833002653165
 20
609.15897080344826
 30
0.0
 40
1.5
 50
0.0
 51
90.0
  0
ARC
  5
679
  8
1外形線
 10
167.73330026531639
 20
611.65897080344837
 30
0.0
 40
1.0
 50
0.0
 51
90.0
  0
ARC
  5
67A
  8
1外形線
 10
171.2333002653165
 20
611.65897080344837
 30
0.0
 40
2.5
 50
180.0
 51
270.0
  0
LINE
  5
67B
  8
1外形線
 10
193.7333002653165
 20
629.15897683501419
 30
0.0
 11
193.7333002653165
 21
643.5376504598886
 31
0.0
  0
LINE
  5
67C
  8
1外形線
 10
191.73330026531639
 20
629.15896477188244
 30
0.0
 11
191.73330026531639
 21
643.45186402226182
 31
0.0
  0
LINE
  5
67D
  8
1外形線
 10
192.42820179356821
 20
620.58686191846925
 30
0.0
 11
191.90073665548849
 21
620.36837870459772
 31
0.0
  0
LINE
  5
67E
  8
1外形線
 10
192.428201793569
 20
620.58686191846959
 30
0.0
 11
192.2097185796969
 21
621.11432705655045
 31
0.0
  0
ARC
  5
67F
  8
1外形線
 10
171.73330026531639
 20
629.15897080344848
 30
0.0
 40
22.0
 50
338.55144786891572
 51
0.0
  0
LINE
  5
680
  8
1外形線
 10
189.3993694376021
 20
619.15897080344837
 30
0.0
 11
189.0389020847683
 21
619.13319673524904
 31
0.0
  0
LINE
  5
681
  8
1外形線
 10
189.2359464197433
 20
619.48129662041742
 30
0.0
 11
189.3993694376021
 21
619.15897080344837
 31
0.0
  0
LINE
  5
682
  8
1外形線
 10
187.57249216389451
 20
613.31977890487008
 30
0.0
 11
187.0015680125108
 21
613.31977890487008
 31
0.0
  0
LINE
  5
683
  8
1外形線
 10
187.57249216389539
 20
613.31977890487008
 30
0.0
 11
187.57249216389539
 21
613.89070305625523
 31
0.0
  0
ARC
  5
684
  8
1外形線
 10
171.73330026531639
 20
629.15897080344848
 30
0.0
 40
20.0
 50
331.06063807046178
 51
0.0
  0
ARC
  5
685
  8
1外形線
 10
171.73330026531639
 20
629.15897080344848
 30
0.0
 40
22.0
 50
316.05144786891867
 51
336.44855213108218
  0
ARC
  5
686
  8
1外形線
 10
193.2333002653165
 20
649.86607758463492
 30
0.0
 40
0.5
 50
315.0
 51
0.0
  0
LINE
  5
687
  8
1外形線
 10
193.7333002653165
 20
652.15896317405395
 30
0.0
 11
193.7333002653165
 21
649.86607758463492
 31
0.0
  0
LINE
  5
688
  8
1外形線
 10
191.9333002653164
 20
652.15897080344837
 30
0.0
 11
191.9333002653164
 21
652.03916323794738
 31
0.0
  0
ARC
  5
689
  8
1外形線
 10
187.80546846475599
 20
651.93111703980935
 30
0.0
 40
4.1341157109255899
 50
340.9796256721379
 51
3.1594852589837812
  0
ARC
  5
68A
  8
1外形線
 10
193.2333002653165
 20
643.5376504598886
 30
0.0
 40
0.5
 50
0.0
 51
45.0
  0
ARC
  5
68B
  8
1外形線
 10
190.2333002653165
 20
643.45186402226182
 30
0.0
 40
1.5
 50
0.0
 51
45.000000000000568
  0
LINE
  5
68C
  8
1外形線
 10
193.58685365590981
 20
649.51252419404148
 30
0.0
 11
191.5299667849647
 21
647.45563732309665
 31
0.0
  0
LINE
  5
68D
  8
1外形線
 10
189.5753204086422
 20
650.59866342423425
 30
0.0
 11
190.86098717215481
 21
650.13071899113038
 31
0.0
  0
ARC
  5
68E
  8
1外形線
 10
186.17102986576
 20
647.40897080344837
 30
0.0
 40
1.5
 50
323.69345507244168
 51
36.306548709949929
  0
LINE
  5
68F
  8
1外形線
 10
188.4446032928096
 20
644.54418865865341
 30
0.0
 11
189.0959532974459
 21
643.70857919756509
 31
0.0
  0
ARC
  5
690
  8
1外形線
 10
188.5833002653165
 20
643.30897080344835
 30
0.0
 40
0.65
 50
217.9360922482349
 51
37.936092248234928
  0
LINE
  5
691
  8
1外形線
 10
187.4192972285509
 20
643.74497187041993
 30
0.0
 11
188.07064723318709
 21
642.90936240933161
 31
0.0
  0
ARC
  5
692
  8
1外形線
 10
189.2333002653165
 20
645.15897080344837
 30
0.0
 40
2.3000000000000109
 50
143.69345194756869
 51
217.93609224819409
  0
ARC
  5
693
  8
1外形線
 10
189.2333002653165
 20
645.15897080344837
 30
0.0
 40
1.0
 50
45.000000000008058
 51
217.9360922482272
  0
LINE
  5
694
  8
1外形線
 10
190.88962517619589
 20
647.39961469154559
 30
0.0
 11
188.36083687730579
 21
649.17029132096491
 31
0.0
  0
ARC
  5
695
  8
1外形線
 10
189.2333002653165
 20
649.65897080344837
 30
0.0
 40
2.3000000000000109
 50
69.999999999999332
 51
216.30654558561179
  0
ARC
  5
696
  8
1外形線
 10
189.2333002653165
 20
649.65897080344837
 30
0.0
 40
1.0
 50
69.999854770938157
 51
225.00021856605369
  0
ARC
  5
697
  8
1外形線
 10
191.17641339437151
 20
647.80919071368987
 30
0.0
 40
0.5
 50
235.0000000000006
 51
315.0
  0
LINE
  5
698
  8
1外形線
 10
190.0199465949656
 20
651.82026383125594
 30
0.0
 11
191.26210567546761
 21
651.36815489972969
 31
0.0
  0
ARC
  5
699
  8
1外形線
 10
191.0833002653165
 20
650.74151919464111
 30
0.0
 40
0.65
 50
250.00000000003581
 51
74.079490149599934
  0
LINE
  5
69A
  8
1外形線
 10
188.52619348412989
 20
648.95186402226182
 30
0.0
 11
193.58685365590969
 21
643.89120385048204
 31
0.0
  0
LINE
  5
69B
  8
1外形線
 10
189.940407046503
 20
645.86607758463492
 30
0.0
 11
191.29396043709619
 21
644.51252419404159
 31
0.0
  0
ARC
  5
69C
  8
1外形線
 10
318.73330026531647
 20
481.61597789151051
 30
0.0
 40
1.8999999999999999
 50
270.0
 51
90.0
  0
LINE
  5
69D
  8
1外形線
 10
308.73330026531647
 20
483.51597789151037
 30
0.0
 11
318.73330026531647
 21
483.51597789151037
 31
0.0
  0
LINE
  5
69E
  8
1外形線
 10
318.73330026531647
 20
479.71597789151048
 30
0.0
 11
308.73330026531647
 21
479.71597789151048
 31
0.0
  0
ARC
  5
69F
  8
1外形線
 10
308.73330026531647
 20
481.61597789151051
 30
0.0
 40
1.8999999999999999
 50
90.0
 51
270.0
  0
ARC
  5
6A0
  8
1外形線
 10
318.73330026531647
 20
521.61597789151051
 30
0.0
 40
1.8999999999999999
 50
270.0
 51
90.0
  0
ARC
  5
6A1
  8
1外形線
 10
308.73330026531647
 20
521.61597789151051
 30
0.0
 40
1.8999999999999999
 50
90.0
 51
270.0
  0
LINE
  5
6A2
  8
1外形線
 10
318.73330026531647
 20
519.71597789151053
 30
0.0
 11
308.73330026531647
 21
519.71597789151053
 31
0.0
  0
LINE
  5
6A3
  8
1外形線
 10
308.73330026531647
 20
523.51597789151049
 30
0.0
 11
318.73330026531647
 21
523.51597789151049
 31
0.0
  0
LINE
  5
6A4
  8
1外形線
 10
418.73330026531647
 20
479.71597789151048
 30
0.0
 11
408.73330026531647
 21
479.71597789151048
 31
0.0
  0
LINE
  5
6A5
  8
1外形線
 10
408.73330026531647
 20
483.51597789151037
 30
0.0
 11
418.73330026531647
 21
483.51597789151037
 31
0.0
  0
ARC
  5
6A6
  8
1外形線
 10
408.73330026531647
 20
481.61597789151051
 30
0.0
 40
1.8999999999999999
 50
90.0
 51
270.0
  0
ARC
  5
6A7
  8
1外形線
 10
418.73330026531647
 20
481.61597789151051
 30
0.0
 40
1.8999999999999999
 50
270.0
 51
90.0
  0
LINE
  5
6A8
  8
1外形線
 10
408.73330026531647
 20
523.51597789151049
 30
0.0
 11
418.73330026531647
 21
523.51597789151049
 31
0.0
  0
LINE
  5
6A9
  8
1外形線
 10
418.73330026531647
 20
519.71597789151053
 30
0.0
 11
408.73330026531647
 21
519.71597789151053
 31
0.0
  0
ARC
  5
6AA
  8
1外形線
 10
408.73330026531647
 20
521.61597789151051
 30
0.0
 40
1.8999999999999999
 50
90.0
 51
270.0
  0
ARC
  5
6AB
  8
1外形線
 10
418.73330026531647
 20
521.61597789151051
 30
0.0
 40
1.8999999999999999
 50
270.0
 51
90.0
  0
LINE
  5
6AC
  8
1外形線
 10
808.73330026531653
 20
113.5159778915104
 30
0.0
 11
818.73330026531653
 21
113.5159778915104
 31
0.0
  0
LINE
  5
6AD
  8
1外形線
 10
818.73330026531653
 20
109.71597789151051
 30
0.0
 11
808.73330026531653
 21
109.71597789151051
 31
0.0
  0
LINE
  5
6AE
  8
1外形線
 10
808.73330026531653
 20
153.51597789151049
 30
0.0
 11
818.73330026531653
 21
153.51597789151049
 31
0.0
  0
LINE
  5
6AF
  8
1外形線
 10
818.73330026531653
 20
149.71597789151051
 30
0.0
 11
808.73330026531653
 21
149.71597789151051
 31
0.0
  0
LINE
  5
6B0
  8
1外形線
 10
818.73330026531653
 20
189.7159778915107
 30
0.0
 11
808.73330026531653
 21
189.7159778915107
 31
0.0
  0
LINE
  5
6B1
  8
1外形線
 10
808.73330026531653
 20
193.51597789151069
 30
0.0
 11
818.73330026531653
 21
193.51597789151069
 31
0.0
  0
ARC
  5
6B2
  8
1外形線
 10
518.73330026531653
 20
111.6159778915105
 30
0.0
 40
1.8999999999999999
 50
270.0
 51
90.0
  0
ARC
  5
6B3
  8
1外形線
 10
508.73330026531647
 20
111.6159778915105
 30
0.0
 40
1.8999999999999999
 50
90.0
 51
270.0
  0
LINE
  5
6B4
  8
1外形線
 10
518.73330026531653
 20
109.71597789151051
 30
0.0
 11
508.73330026531647
 21
109.71597789151051
 31
0.0
  0
LINE
  5
6B5
  8
1外形線
 10
508.73330026531647
 20
113.5159778915104
 30
0.0
 11
518.73330026531653
 21
113.5159778915104
 31
0.0
  0
ARC
  5
6B6
  8
1外形線
 10
518.73330026531653
 20
151.61597789151051
 30
0.0
 40
1.8999999999999999
 50
270.0
 51
90.0
  0
ARC
  5
6B7
  8
1外形線
 10
508.73330026531647
 20
151.61597789151051
 30
0.0
 40
1.8999999999999999
 50
90.0
 51
270.0
  0
LINE
  5
6B8
  8
1外形線
 10
508.73330026531647
 20
153.51597789151049
 30
0.0
 11
518.73330026531653
 21
153.51597789151049
 31
0.0
  0
LINE
  5
6B9
  8
1外形線
 10
518.73330026531653
 20
149.71597789151051
 30
0.0
 11
508.73330026531647
 21
149.71597789151051
 31
0.0
  0
ARC
  5
6BA
  8
1外形線
 10
608.73330026531653
 20
111.6159778915105
 30
0.0
 40
1.8999999999999999
 50
90.0
 51
270.0
  0
ARC
  5
6BB
  8
1外形線
 10
618.73330026531653
 20
111.6159778915105
 30
0.0
 40
1.8999999999999999
 50
270.0
 51
90.0
  0
LINE
  5
6BC
  8
1外形線
 10
618.73330026531653
 20
109.71597789151051
 30
0.0
 11
608.73330026531653
 21
109.71597789151051
 31
0.0
  0
LINE
  5
6BD
  8
1外形線
 10
608.73330026531653
 20
113.5159778915104
 30
0.0
 11
618.73330026531653
 21
113.5159778915104
 31
0.0
  0
LINE
  5
6BE
  8
1外形線
 10
618.73330026531653
 20
149.71597789151051
 30
0.0
 11
608.73330026531653
 21
149.71597789151051
 31
0.0
  0
LINE
  5
6BF
  8
1外形線
 10
608.73330026531653
 20
153.51597789151049
 30
0.0
 11
618.73330026531653
 21
153.51597789151049
 31
0.0
  0
ARC
  5
6C0
  8
1外形線
 10
608.73330026531653
 20
151.61597789151051
 30
0.0
 40
1.8999999999999999
 50
90.0
 51
270.0
  0
ARC
  5
6C1
  8
1外形線
 10
618.73330026531653
 20
151.61597789151051
 30
0.0
 40
1.8999999999999999
 50
270.0
 51
90.0
  0
ARC
  5
6C2
  8
1外形線
 10
518.73330026531653
 20
191.61597789151071
 30
0.0
 40
1.8999999999999999
 50
270.0
 51
90.0
  0
ARC
  5
6C3
  8
1外形線
 10
508.73330026531647
 20
191.61597789151071
 30
0.0
 40
1.8999999999999999
 50
90.0
 51
270.0
  0
LINE
  5
6C4
  8
1外形線
 10
518.73330026531653
 20
189.7159778915107
 30
0.0
 11
508.73330026531647
 21
189.7159778915107
 31
0.0
  0
LINE
  5
6C5
  8
1外形線
 10
508.73330026531647
 20
193.51597789151069
 30
0.0
 11
518.73330026531653
 21
193.51597789151069
 31
0.0
  0
LINE
  5
6C6
  8
1外形線
 10
608.73330026531653
 20
193.51597789151069
 30
0.0
 11
618.73330026531653
 21
193.51597789151069
 31
0.0
  0
LINE
  5
6C7
  8
1外形線
 10
618.73330026531653
 20
189.7159778915107
 30
0.0
 11
608.73330026531653
 21
189.7159778915107
 31
0.0
  0
ARC
  5
6C8
  8
1外形線
 10
608.73330026531653
 20
191.61597789151071
 30
0.0
 40
1.8999999999999999
 50
90.0
 51
270.0
  0
ARC
  5
6C9
  8
1外形線
 10
618.73330026531653
 20
191.61597789151071
 30
0.0
 40
1.8999999999999999
 50
270.0
 51
90.0
  0
ARC
  5
6CA
  8
1外形線
 10
708.73330026531653
 20
111.6159778915105
 30
0.0
 40
1.8999999999999999
 50
90.0
 51
270.0
  0
ARC
  5
6CB
  8
1外形線
 10
718.73330026531653
 20
111.6159778915105
 30
0.0
 40
1.8999999999999999
 50
270.0
 51
90.0
  0
LINE
  5
6CC
  8
1外形線
 10
718.73330026531653
 20
109.71597789151051
 30
0.0
 11
708.73330026531653
 21
109.71597789151051
 31
0.0
  0
LINE
  5
6CD
  8
1外形線
 10
708.73330026531653
 20
113.5159778915104
 30
0.0
 11
718.73330026531653
 21
113.5159778915104
 31
0.0
  0
LINE
  5
6CE
  8
1外形線
 10
708.73330026531653
 20
153.51597789151049
 30
0.0
 11
718.73330026531653
 21
153.51597789151049
 31
0.0
  0
LINE
  5
6CF
  8
1外形線
 10
718.73330026531653
 20
149.71597789151051
 30
0.0
 11
708.73330026531653
 21
149.71597789151051
 31
0.0
  0
ARC
  5
6D0
  8
1外形線
 10
708.73330026531653
 20
151.61597789151051
 30
0.0
 40
1.8999999999999999
 50
90.0
 51
270.0
  0
ARC
  5
6D1
  8
1外形線
 10
718.73330026531653
 20
151.61597789151051
 30
0.0
 40
1.8999999999999999
 50
270.0
 51
90.0
  0
ARC
  5
6D2
  8
1外形線
 10
808.73330026531653
 20
111.6159778915105
 30
0.0
 40
1.8999999999999999
 50
90.0
 51
270.0
  0
ARC
  5
6D3
  8
1外形線
 10
808.73330026531653
 20
151.61597789151051
 30
0.0
 40
1.8999999999999999
 50
90.0
 51
270.0
  0
ARC
  5
6D4
  8
1外形線
 10
718.73330026531653
 20
191.61597789151071
 30
0.0
 40
1.8999999999999999
 50
270.0
 51
90.0
  0
ARC
  5
6D5
  8
1外形線
 10
708.73330026531653
 20
191.61597789151071
 30
0.0
 40
1.8999999999999999
 50
90.0
 51
270.0
  0
LINE
  5
6D6
  8
1外形線
 10
718.73330026531653
 20
189.7159778915107
 30
0.0
 11
708.73330026531653
 21
189.7159778915107
 31
0.0
  0
LINE
  5
6D7
  8
1外形線
 10
708.73330026531653
 20
193.51597789151069
 30
0.0
 11
718.73330026531653
 21
193.51597789151069
 31
0.0
  0
ARC
  5
6D8
  8
1外形線
 10
808.73330026531653
 20
191.61597789151071
 30
0.0
 40
1.8999999999999999
 50
90.0
 51
270.0
  0
ARC
  5
6D9
  8
1外形線
 10
818.73330026531653
 20
111.6159778915105
 30
0.0
 40
1.8999999999999999
 50
270.0
 51
90.0
  0
ARC
  5
6DA
  8
1外形線
 10
818.73330026531653
 20
151.61597789151051
 30
0.0
 40
1.8999999999999999
 50
270.0
 51
90.0
  0
ARC
  5
6DB
  8
1外形線
 10
918.73330026531653
 20
111.6159778915105
 30
0.0
 40
1.8999999999999999
 50
270.0
 51
90.0
  0
ARC
  5
6DC
  8
1外形線
 10
908.73330026531653
 20
111.6159778915105
 30
0.0
 40
1.8999999999999999
 50
90.0
 51
270.0
  0
LINE
  5
6DD
  8
1外形線
 10
918.73330026531653
 20
109.71597789151051
 30
0.0
 11
908.73330026531653
 21
109.71597789151051
 31
0.0
  0
LINE
  5
6DE
  8
1外形線
 10
908.73330026531653
 20
113.5159778915104
 30
0.0
 11
918.73330026531653
 21
113.5159778915104
 31
0.0
  0
ARC
  5
6DF
  8
1外形線
 10
918.73330026531653
 20
151.61597789151051
 30
0.0
 40
1.8999999999999999
 50
270.0
 51
90.0
  0
ARC
  5
6E0
  8
1外形線
 10
908.73330026531653
 20
151.61597789151051
 30
0.0
 40
1.8999999999999999
 50
90.0
 51
270.0
  0
LINE
  5
6E1
  8
1外形線
 10
908.73330026531653
 20
153.51597789151049
 30
0.0
 11
918.73330026531653
 21
153.51597789151049
 31
0.0
  0
LINE
  5
6E2
  8
1外形線
 10
918.73330026531653
 20
149.71597789151051
 30
0.0
 11
908.73330026531653
 21
149.71597789151051
 31
0.0
  0
ARC
  5
6E3
  8
1外形線
 10
818.73330026531653
 20
191.61597789151071
 30
0.0
 40
1.8999999999999999
 50
270.0
 51
90.0
  0
ARC
  5
6E4
  8
1外形線
 10
918.73330026531653
 20
191.61597789151071
 30
0.0
 40
1.8999999999999999
 50
270.0
 51
90.0
  0
ARC
  5
6E5
  8
1外形線
 10
908.73330026531653
 20
191.61597789151071
 30
0.0
 40
1.8999999999999999
 50
90.0
 51
270.0
  0
LINE
  5
6E6
  8
1外形線
 10
918.73330026531653
 20
189.7159778915107
 30
0.0
 11
908.73330026531653
 21
189.7159778915107
 31
0.0
  0
LINE
  5
6E7
  8
1外形線
 10
908.73330026531653
 20
193.51597789151069
 30
0.0
 11
918.73330026531653
 21
193.51597789151069
 31
0.0
  0
ARC
  5
6E8
  8
1外形線
 10
1008.733300265316
 20
111.6159778915105
 30
0.0
 40
1.8999999999999999
 50
90.0
 51
270.0
  0
ARC
  5
6E9
  8
1外形線
 10
1018.733300265316
 20
111.6159778915105
 30
0.0
 40
1.8999999999999999
 50
270.0
 51
90.0
  0
LINE
  5
6EA
  8
1外形線
 10
1018.733300265316
 20
109.71597789151051
 30
0.0
 11
1008.733300265316
 21
109.71597789151051
 31
0.0
  0
LINE
  5
6EB
  8
1外形線
 10
1008.733300265316
 20
113.5159778915104
 30
0.0
 11
1018.733300265316
 21
113.5159778915104
 31
0.0
  0
LINE
  5
6EC
  8
1外形線
 10
1008.733300265316
 20
153.51597789151049
 30
0.0
 11
1018.733300265316
 21
153.51597789151049
 31
0.0
  0
LINE
  5
6ED
  8
1外形線
 10
1018.733300265316
 20
149.71597789151051
 30
0.0
 11
1008.733300265316
 21
149.71597789151051
 31
0.0
  0
ARC
  5
6EE
  8
1外形線
 10
1008.733300265316
 20
151.61597789151051
 30
0.0
 40
1.8999999999999999
 50
90.0
 51
270.0
  0
ARC
  5
6EF
  8
1外形線
 10
1018.733300265316
 20
151.61597789151051
 30
0.0
 40
1.8999999999999999
 50
270.0
 51
90.0
  0
ARC
  5
6F0
  8
1外形線
 10
1118.7333002653161
 20
111.6159778915105
 30
0.0
 40
1.8999999999999999
 50
270.0
 51
90.0
  0
ARC
  5
6F1
  8
1外形線
 10
1108.7333002653161
 20
111.6159778915105
 30
0.0
 40
1.8999999999999999
 50
90.0
 51
270.0
  0
LINE
  5
6F2
  8
1外形線
 10
1118.7333002653161
 20
109.71597789151051
 30
0.0
 11
1108.7333002653161
 21
109.71597789151051
 31
0.0
  0
LINE
  5
6F3
  8
1外形線
 10
1108.7333002653161
 20
113.5159778915104
 30
0.0
 11
1118.7333002653161
 21
113.5159778915104
 31
0.0
  0
ARC
  5
6F4
  8
1外形線
 10
1118.7333002653161
 20
151.61597789151051
 30
0.0
 40
1.8999999999999999
 50
270.0
 51
90.0
  0
ARC
  5
6F5
  8
1外形線
 10
1108.7333002653161
 20
151.61597789151051
 30
0.0
 40
1.8999999999999999
 50
90.0
 51
270.0
  0
LINE
  5
6F6
  8
1外形線
 10
1118.7333002653161
 20
149.71597789151051
 30
0.0
 11
1108.7333002653161
 21
149.71597789151051
 31
0.0
  0
LINE
  5
6F7
  8
1外形線
 10
1108.7333002653161
 20
153.51597789151049
 30
0.0
 11
1118.7333002653161
 21
153.51597789151049
 31
0.0
  0
LINE
  5
6F8
  8
1外形線
 10
1018.733300265316
 20
189.7159778915107
 30
0.0
 11
1008.733300265316
 21
189.7159778915107
 31
0.0
  0
LINE
  5
6F9
  8
1外形線
 10
1008.733300265316
 20
193.51597789151069
 30
0.0
 11
1018.733300265316
 21
193.51597789151069
 31
0.0
  0
ARC
  5
6FA
  8
1外形線
 10
1008.733300265316
 20
191.61597789151071
 30
0.0
 40
1.8999999999999999
 50
90.0
 51
270.0
  0
ARC
  5
6FB
  8
1外形線
 10
1018.733300265316
 20
191.61597789151071
 30
0.0
 40
1.8999999999999999
 50
270.0
 51
90.0
  0
LINE
  5
6FC
  8
1外形線
 10
1108.7333002653161
 20
193.51597789151069
 30
0.0
 11
1118.7333002653161
 21
193.51597789151069
 31
0.0
  0
LINE
  5
6FD
  8
1外形線
 10
1118.7333002653161
 20
189.7159778915107
 30
0.0
 11
1108.7333002653161
 21
189.7159778915107
 31
0.0
  0
ARC
  5
6FE
  8
1外形線
 10
1108.7333002653161
 20
191.61597789151071
 30
0.0
 40
1.8999999999999999
 50
90.0
 51
270.0
  0
ARC
  5
6FF
  8
1外形線
 10
1118.7333002653161
 20
191.61597789151071
 30
0.0
 40
1.8999999999999999
 50
270.0
 51
90.0
  0
LINE
  5
700
  8
1外形線
 10
808.73330026531653
 20
483.51597789151037
 30
0.0
 11
818.73330026531653
 21
483.51597789151037
 31
0.0
  0
LINE
  5
701
  8
1外形線
 10
818.73330026531653
 20
479.71597789151048
 30
0.0
 11
808.73330026531653
 21
479.71597789151048
 31
0.0
  0
LINE
  5
702
  8
1外形線
 10
818.73330026531653
 20
519.71597789151053
 30
0.0
 11
808.73330026531653
 21
519.71597789151053
 31
0.0
  0
LINE
  5
703
  8
1外形線
 10
808.73330026531653
 20
523.51597789151049
 30
0.0
 11
818.73330026531653
 21
523.51597789151049
 31
0.0
  0
ARC
  5
704
  8
1外形線
 10
518.73330026531653
 20
481.61597789151051
 30
0.0
 40
1.8999999999999999
 50
270.0
 51
90.0
  0
ARC
  5
705
  8
1外形線
 10
508.73330026531647
 20
481.61597789151051
 30
0.0
 40
1.8999999999999999
 50
90.0
 51
270.0
  0
LINE
  5
706
  8
1外形線
 10
508.73330026531647
 20
483.51597789151037
 30
0.0
 11
518.73330026531653
 21
483.51597789151037
 31
0.0
  0
LINE
  5
707
  8
1外形線
 10
518.73330026531653
 20
479.71597789151048
 30
0.0
 11
508.73330026531647
 21
479.71597789151048
 31
0.0
  0
ARC
  5
708
  8
1外形線
 10
518.73330026531653
 20
521.61597789151051
 30
0.0
 40
1.8999999999999999
 50
270.0
 51
90.0
  0
ARC
  5
709
  8
1外形線
 10
508.73330026531647
 20
521.61597789151051
 30
0.0
 40
1.8999999999999999
 50
90.0
 51
270.0
  0
LINE
  5
70A
  8
1外形線
 10
518.73330026531653
 20
519.71597789151053
 30
0.0
 11
508.73330026531647
 21
519.71597789151053
 31
0.0
  0
LINE
  5
70B
  8
1外形線
 10
508.73330026531647
 20
523.51597789151049
 30
0.0
 11
518.73330026531653
 21
523.51597789151049
 31
0.0
  0
LINE
  5
70C
  8
1外形線
 10
608.73330026531653
 20
483.51597789151037
 30
0.0
 11
618.73330026531653
 21
483.51597789151037
 31
0.0
  0
LINE
  5
70D
  8
1外形線
 10
618.73330026531653
 20
479.71597789151048
 30
0.0
 11
608.73330026531653
 21
479.71597789151048
 31
0.0
  0
ARC
  5
70E
  8
1外形線
 10
608.73330026531653
 20
481.61597789151051
 30
0.0
 40
1.8999999999999999
 50
90.0
 51
270.0
  0
ARC
  5
70F
  8
1外形線
 10
618.73330026531653
 20
481.61597789151051
 30
0.0
 40
1.8999999999999999
 50
270.0
 51
90.0
  0
LINE
  5
710
  8
1外形線
 10
618.73330026531653
 20
519.71597789151053
 30
0.0
 11
608.73330026531653
 21
519.71597789151053
 31
0.0
  0
LINE
  5
711
  8
1外形線
 10
608.73330026531653
 20
523.51597789151049
 30
0.0
 11
618.73330026531653
 21
523.51597789151049
 31
0.0
  0
ARC
  5
712
  8
1外形線
 10
608.73330026531653
 20
521.61597789151051
 30
0.0
 40
1.8999999999999999
 50
90.0
 51
270.0
  0
ARC
  5
713
  8
1外形線
 10
618.73330026531653
 20
521.61597789151051
 30
0.0
 40
1.8999999999999999
 50
270.0
 51
90.0
  0
ARC
  5
714
  8
1外形線
 10
718.73330026531653
 20
481.61597789151051
 30
0.0
 40
1.8999999999999999
 50
270.0
 51
90.0
  0
ARC
  5
715
  8
1外形線
 10
708.73330026531653
 20
481.61597789151051
 30
0.0
 40
1.8999999999999999
 50
90.0
 51
270.0
  0
LINE
  5
716
  8
1外形線
 10
708.73330026531653
 20
483.51597789151037
 30
0.0
 11
718.73330026531653
 21
483.51597789151037
 31
0.0
  0
LINE
  5
717
  8
1外形線
 10
718.73330026531653
 20
479.71597789151048
 30
0.0
 11
708.73330026531653
 21
479.71597789151048
 31
0.0
  0
LINE
  5
718
  8
1外形線
 10
718.73330026531653
 20
519.71597789151053
 30
0.0
 11
708.73330026531653
 21
519.71597789151053
 31
0.0
  0
LINE
  5
719
  8
1外形線
 10
708.73330026531653
 20
523.51597789151049
 30
0.0
 11
718.73330026531653
 21
523.51597789151049
 31
0.0
  0
ARC
  5
71A
  8
1外形線
 10
708.73330026531653
 20
521.61597789151051
 30
0.0
 40
1.8999999999999999
 50
90.0
 51
270.0
  0
ARC
  5
71B
  8
1外形線
 10
718.73330026531653
 20
521.61597789151051
 30
0.0
 40
1.8999999999999999
 50
270.0
 51
90.0
  0
ARC
  5
71C
  8
1外形線
 10
808.73330026531653
 20
481.61597789151051
 30
0.0
 40
1.8999999999999999
 50
90.0
 51
270.0
  0
ARC
  5
71D
  8
1外形線
 10
808.73330026531653
 20
521.61597789151051
 30
0.0
 40
1.8999999999999999
 50
90.0
 51
270.0
  0
ARC
  5
71E
  8
1外形線
 10
818.73330026531653
 20
481.61597789151051
 30
0.0
 40
1.8999999999999999
 50
270.0
 51
90.0
  0
ARC
  5
71F
  8
1外形線
 10
818.73330026531653
 20
521.61597789151051
 30
0.0
 40
1.8999999999999999
 50
270.0
 51
90.0
  0
ARC
  5
720
  8
1外形線
 10
918.73330026531653
 20
481.61597789151051
 30
0.0
 40
1.8999999999999999
 50
270.0
 51
90.0
  0
ARC
  5
721
  8
1外形線
 10
908.73330026531653
 20
481.61597789151051
 30
0.0
 40
1.8999999999999999
 50
90.0
 51
270.0
  0
LINE
  5
722
  8
1外形線
 10
908.73330026531653
 20
483.51597789151037
 30
0.0
 11
918.73330026531653
 21
483.51597789151037
 31
0.0
  0
LINE
  5
723
  8
1外形線
 10
918.73330026531653
 20
479.71597789151048
 30
0.0
 11
908.73330026531653
 21
479.71597789151048
 31
0.0
  0
ARC
  5
724
  8
1外形線
 10
918.73330026531653
 20
521.61597789151051
 30
0.0
 40
1.8999999999999999
 50
270.0
 51
90.0
  0
ARC
  5
725
  8
1外形線
 10
908.73330026531653
 20
521.61597789151051
 30
0.0
 40
1.8999999999999999
 50
90.0
 51
270.0
  0
LINE
  5
726
  8
1外形線
 10
918.73330026531653
 20
519.71597789151053
 30
0.0
 11
908.73330026531653
 21
519.71597789151053
 31
0.0
  0
LINE
  5
727
  8
1外形線
 10
908.73330026531653
 20
523.51597789151049
 30
0.0
 11
918.73330026531653
 21
523.51597789151049
 31
0.0
  0
LINE
  5
728
  8
1外形線
 10
1008.733300265316
 20
483.51597789151037
 30
0.0
 11
1018.733300265316
 21
483.51597789151037
 31
0.0
  0
LINE
  5
729
  8
1外形線
 10
1018.733300265316
 20
479.71597789151048
 30
0.0
 11
1008.733300265316
 21
479.71597789151048
 31
0.0
  0
ARC
  5
72A
  8
1外形線
 10
1008.733300265316
 20
481.61597789151051
 30
0.0
 40
1.8999999999999999
 50
90.0
 51
270.0
  0
ARC
  5
72B
  8
1外形線
 10
1018.733300265316
 20
481.61597789151051
 30
0.0
 40
1.8999999999999999
 50
270.0
 51
90.0
  0
LINE
  5
72C
  8
1外形線
 10
1018.733300265316
 20
519.71597789151053
 30
0.0
 11
1008.733300265316
 21
519.71597789151053
 31
0.0
  0
LINE
  5
72D
  8
1外形線
 10
1008.733300265316
 20
523.51597789151049
 30
0.0
 11
1018.733300265316
 21
523.51597789151049
 31
0.0
  0
ARC
  5
72E
  8
1外形線
 10
1008.733300265316
 20
521.61597789151051
 30
0.0
 40
1.8999999999999999
 50
90.0
 51
270.0
  0
ARC
  5
72F
  8
1外形線
 10
1018.733300265316
 20
521.61597789151051
 30
0.0
 40
1.8999999999999999
 50
270.0
 51
90.0
  0
LINE
  5
730
  8
1外形線
 10
1108.7333002653161
 20
483.51597789151037
 30
0.0
 11
1118.7333002653161
 21
483.51597789151037
 31
0.0
  0
LINE
  5
731
  8
1外形線
 10
1118.7333002653161
 20
479.71597789151048
 30
0.0
 11
1108.7333002653161
 21
479.71597789151048
 31
0.0
  0
ARC
  5
732
  8
1外形線
 10
1108.7333002653161
 20
481.61597789151051
 30
0.0
 40
1.8999999999999999
 50
90.0
 51
270.0
  0
ARC
  5
733
  8
1外形線
 10
1118.7333002653161
 20
481.61597789151051
 30
0.0
 40
1.8999999999999999
 50
270.0
 51
90.0
  0
ARC
  5
734
  8
1外形線
 10
1118.7333002653161
 20
521.61597789151051
 30
0.0
 40
1.8999999999999999
 50
270.0
 51
90.0
  0
ARC
  5
735
  8
1外形線
 10
1108.7333002653161
 20
521.61597789151051
 30
0.0
 40
1.8999999999999999
 50
90.0
 51
270.0
  0
LINE
  5
736
  8
1外形線
 10
1118.7333002653161
 20
519.71597789151053
 30
0.0
 11
1108.7333002653161
 21
519.71597789151053
 31
0.0
  0
LINE
  5
737
  8
1外形線
 10
1108.7333002653161
 20
523.51597789151049
 30
0.0
 11
1118.7333002653161
 21
523.51597789151049
 31
0.0
  0
TEXT
  5
738
  8
1外形線
 10
75.62722179446277
 20
696.27281571008552
 30
0.0
 40
10.0
  1
SD-100
  7
KANJI
  0
LINE
  5
739
  8
1外形線
 10
95.266760139529737
 20
661.87912998552133
 30
0.0
 11
95.793634872581109
 21
662.09736864562285
 31
0.0
  0
ARC
  5
73A
  8
1外形線
 10
118.7333002653164
 20
652.15897080344837
 30
0.0
 40
25.0
 50
135.92422664778979
 51
156.575773352212
  0
TEXT
  5
73B
  8
1外形線
 10
75.627221794463139
 20
987.19052166366305
 30
0.0
 40
10.0
  1
SD-77
  7
KANJI
  0
LINE
  5
73C
  8
1外形線
 10
95.266760139529623
 20
661.87912998552133
 30
0.0
 11
95.484998799631484
 21
661.35225525246983
 31
0.0
  0
LINE
  5
73D
  8
1外形線
 10
263.7333002653167
 20
872.15897080344837
 30
0.0
 11
263.7333002653167
 21
834.65897080344837
 31
0.0
  0
ARC
  5
73E
  8
1外形線
 10
168.73330026531639
 20
652.15897080344837
 30
0.0
 40
25.0
 50
45.924226647788643
 51
66.575773352211371
  0
LINE
  5
73F
  8
1外形線
 10
118.7333002653164
 20
677.15897080344837
 30
0.0
 11
143.73330026531639
 21
677.15897080344837
 31
0.0
  0
LINE
  5
740
  8
1外形線
 10
118.7333002653164
 20
675.3589708034483
 30
0.0
 11
143.73330026531639
 21
675.3589708034483
 31
0.0
  0
ARC
  5
741
  8
1外形線
 10
118.7333002653164
 20
652.15897080344837
 30
0.0
 40
25.0
 50
90.0
 51
111.57577335221001
  0
LINE
  5
742
  8
1外形線
 10
109.0131410832436
 20
675.62551092923479
 30
0.0
 11
109.5400158162949
 21
675.4072722691335
 31
0.0
  0
LINE
  5
743
  8
1外形線
 10
109.0131410832436
 20
675.62551092923513
 30
0.0
 11
108.79490242314191
 21
675.09863619618329
 31
0.0
  0
LINE
  5
744
  8
1外形線
 10
100.77278802317819
 20
670.11948304558655
 30
0.0
 11
101.343073124764
 21
670.11948304558655
 31
0.0
  0
LINE
  5
745
  8
1外形線
 10
100.77278802317819
 20
670.11948304558666
 30
0.0
 11
100.77278802317819
 21
669.5491979440003
 31
0.0
  0
ARC
  5
746
  8
1外形線
 10
118.7333002653164
 20
652.15897080344837
 30
0.0
 40
25.0
 50
113.4242266477886
 51
134.07577335221131
  0
LINE
  5
747
  8
1外形線
 10
168.73330026531639
 20
675.3589708034483
 30
0.0
 11
143.73330026531639
 21
675.3589708034483
 31
0.0
  0
LINE
  5
748
  8
1外形線
 10
168.73330026531639
 20
677.15897080344837
 30
0.0
 11
143.73330026531639
 21
677.15897080344837
 31
0.0
  0
LINE
  5
749
  8
1外形線
 10
178.45345944738929
 20
675.62551092923513
 30
0.0
 11
178.6716981074909
 21
675.09863619618329
 31
0.0
  0
LINE
  5
74A
  8
1外形線
 10
178.45345944738929
 20
675.62551092923479
 30
0.0
 11
177.92658471433799
 21
675.4072722691335
 31
0.0
  0
ARC
  5
74B
  8
1外形線
 10
168.73330026531639
 20
652.15897080344837
 30
0.0
 40
25.0
 50
68.424226647790022
 51
90.0
  0
LINE
  5
74C
  8
1外形線
 10
186.69381250745471
 20
670.11948304558655
 30
0.0
 11
186.1235274058688
 21
670.11948304558655
 31
0.0
  0
LINE
  5
74D
  8
1外形線
 10
186.69381250745479
 20
670.11948304558666
 30
0.0
 11
186.69381250745479
 21
669.5491979440003
 31
0.0
  0
LINE
  5
74E
  8
1外形線
 10
192.19984039110321
 20
661.87912998552133
 30
0.0
 11
191.98160173100149
 21
661.35225525246983
 31
0.0
  0
LINE
  5
74F
  8
1外形線
 10
192.19984039110309
 20
661.87912998552133
 30
0.0
 11
191.67296565805179
 21
662.09736864562285
 31
0.0
  0
ARC
  5
750
  8
1外形線
 10
168.73330026531639
 20
652.15897080344837
 30
0.0
 40
25.0
 50
23.424226647787901
 51
44.075773352210199
  0
LINE
  5
751
  8
1外形線
 10
263.73330026531681
 20
797.15897080344826
 30
0.0
 11
263.7333002653167
 21
834.65897080344837
 31
0.0
  0
ARC
  5
752
  8
1外形線
 10
318.7333002653167
 20
834.65897080344826
 30
0.0
 40
1.8999999999999999
 50
270.0
 51
90.0
  0
LINE
  5
753
  8
1外形線
 10
318.7333002653167
 20
832.75897080344839
 30
0.0
 11
308.7333002653167
 21
832.75897080344839
 31
0.0
  0
LINE
  5
754
  8
1外形線
 10
308.7333002653167
 20
836.55897080344835
 30
0.0
 11
318.7333002653167
 21
836.55897080344835
 31
0.0
  0
ARC
  5
755
  8
1外形線
 10
308.7333002653167
 20
834.65897080344826
 30
0.0
 40
1.8999999999999999
 50
90.0
 51
270.0
  0
LINE
  5
756
  8
1外形線
 10
408.7333002653167
 20
836.55897080344835
 30
0.0
 11
418.7333002653167
 21
836.55897080344835
 31
0.0
  0
LINE
  5
757
  8
1外形線
 10
418.7333002653167
 20
832.75897080344839
 30
0.0
 11
408.7333002653167
 21
832.75897080344839
 31
0.0
  0
ARC
  5
758
  8
1外形線
 10
408.7333002653167
 20
834.65897080344826
 30
0.0
 40
1.8999999999999999
 50
90.0
 51
270.0
  0
ARC
  5
759
  8
1外形線
 10
418.7333002653167
 20
834.65897080344826
 30
0.0
 40
1.8999999999999999
 50
270.0
 51
90.0
  0
LINE
  5
75A
  8
1外形線
 10
263.7333002653167
 20
965.15897080344848
 30
0.0
 11
263.7333002653167
 21
902.15897080344837
 31
0.0
  0
ARC
  5
75B
  8
1外形線
 10
156.23330026531681
 20
940.15897080344848
 30
0.0
 40
25.0
 50
23.424226647787901
 51
44.075773352210199
  0
ARC
  5
75C
  8
1外形線
 10
131.23330026531681
 20
940.15897080344848
 30
0.0
 40
25.0
 50
135.92422664778979
 51
156.575773352212
  0
ARC
  5
75D
  8
1外形線
 10
131.23330026531681
 20
940.15897080344848
 30
0.0
 40
23.699999999999999
 50
90.0
 51
168.93737605297079
  0
ARC
  5
75E
  8
1外形線
 10
156.23330026531681
 20
940.15897080344848
 30
0.0
 40
23.699999999999999
 50
11.062623947029151
 51
90.0
  0
ARC
  5
75F
  8
1外形線
 10
147.73330026531681
 20
906.15897080344848
 30
0.0
 40
1.0
 50
0.0
 51
90.0
  0
ARC
  5
760
  8
1外形線
 10
139.73330026531681
 20
906.15897080344848
 30
0.0
 40
1.0
 50
90.0
 51
180.0
  0
ARC
  5
761
  8
1外形線
 10
128.23330026531681
 20
924.15897080344848
 30
0.0
 40
22.0
 50
226.05144786891461
 51
246.4485521310844
  0
ARC
  5
762
  8
1外形線
 10
128.23330026531681
 20
924.35897080344864
 30
0.0
 40
20.699999999999989
 50
180.0
 51
270.0
  0
ARC
  5
763
  8
1外形線
 10
159.23330026531681
 20
924.35897080344864
 30
0.0
 40
20.699999999999989
 50
270.0
 51
0.0
  0
ARC
  5
764
  8
1外形線
 10
159.23330026531681
 20
924.15897080344848
 30
0.0
 40
22.0
 50
293.55144786891549
 51
313.94855213108542
  0
LINE
  5
765
  8
1外形線
 10
140.4833002653167
 20
902.15897080344837
 30
0.0
 11
128.2333002653167
 21
902.15897080344837
 31
0.0
  0
ARC
  5
766
  8
1外形線
 10
136.23330026531681
 20
906.15897080344848
 30
0.0
 40
2.5
 50
270.0
 51
0.0
  0
LINE
  5
767
  8
1外形線
 10
138.7333002653167
 20
906.15897080344848
 30
0.0
 11
138.7333002653167
 21
906.15897080344848
 31
0.0
  0
LINE
  5
768
  8
1外形線
 10
119.66119138033871
 20
903.46406927519558
 30
0.0
 11
119.4427081664666
 21
903.99153441327633
 31
0.0
  0
LINE
  5
769
  8
1外形線
 10
119.66119138033871
 20
903.46406927519558
 30
0.0
 11
120.18865651841941
 21
903.6825524890678
 31
0.0
  0
ARC
  5
76A
  8
1外形線
 10
128.23330026531681
 20
924.15897080344848
 30
0.0
 40
22.0
 50
248.55144786891361
 51
270.0
  0
LINE
  5
76B
  8
1外形線
 10
136.2333002653167
 20
903.65897080344848
 30
0.0
 11
128.2333002653167
 21
903.65897080344848
 31
0.0
  0
ARC
  5
76C
  8
1外形線
 10
159.23330026531681
 20
924.15897080344848
 30
0.0
 40
22.0
 50
270.0
 51
291.44855213108622
  0
ARC
  5
76D
  8
1外形線
 10
151.23330026531681
 20
906.15897080344848
 30
0.0
 40
2.5
 50
180.0
 51
270.0
  0
LINE
  5
76E
  8
1外形線
 10
146.4833002653167
 20
902.65897080344848
 30
0.0
 11
146.4833002653167
 21
903.65897080344848
 31
0.0
  0
ARC
  5
76F
  8
1外形線
 10
144.98330026531681
 20
903.65897080344848
 30
0.0
 40
1.5
 50
0.0
 51
90.0
  0
ARC
  5
770
  8
1外形線
 10
146.98330026531681
 20
902.65897080344848
 30
0.0
 40
0.5
 50
180.0
 51
270.0
  0
LINE
  5
771
  8
1外形線
 10
148.7333002653167
 20
906.15897080344848
 30
0.0
 11
148.7333002653167
 21
906.15897080344848
 31
0.0
  0
LINE
  5
772
  8
1外形線
 10
145.6083002653167
 20
903.65897080344848
 30
0.0
 11
145.6083002653167
 21
905.02255981777785
 31
0.0
  0
LINE
  5
773
  8
1外形線
 10
140.9833002653167
 20
903.65897080344848
 30
0.0
 11
140.9833002653167
 21
902.65897080344848
 31
0.0
  0
ARC
  5
774
  8
1外形線
 10
142.48330026531681
 20
903.65897080344848
 30
0.0
 40
1.5
 50
90.0
 51
180.0
  0
ARC
  5
775
  8
1外形線
 10
140.48330026531681
 20
902.65897080344848
 30
0.0
 40
0.5
 50
270.0
 51
0.0
  0
LINE
  5
776
  8
1外形線
 10
141.8583002653167
 20
903.65897080344848
 30
0.0
 11
141.8583002653167
 21
905.02255981777785
 31
0.0
  0
LINE
  5
777
  8
1外形線
 10
144.9833002653167
 20
905.15897080344837
 30
0.0
 11
142.4833002653167
 21
905.15897080344837
 31
0.0
  0
LINE
  5
778
  8
1外形線
 10
145.6083002653167
 20
903.65897080344848
 30
0.0
 11
141.8583002653167
 21
903.65897080344848
 31
0.0
  0
LINE
  5
779
  8
1外形線
 10
146.9833002653167
 20
902.15897080344837
 30
0.0
 11
159.2333002653167
 21
902.15897080344837
 31
0.0
  0
LINE
  5
77A
  8
1外形線
 10
151.2333002653167
 20
903.65897080344848
 30
0.0
 11
159.2333002653167
 21
903.65897080344848
 31
0.0
  0
LINE
  5
77B
  8
1外形線
 10
167.80540915029479
 20
903.46406927519558
 30
0.0
 11
167.27794401221419
 21
903.6825524890678
 31
0.0
  0
LINE
  5
77C
  8
1外形線
 10
167.80540915029479
 20
903.46406927519558
 30
0.0
 11
168.02389236416681
 21
903.99153441327633
 31
0.0
  0
LINE
  5
77D
  8
1外形線
 10
139.7333002653167
 20
907.15897080344848
 30
0.0
 11
147.7333002653167
 21
907.15897080344848
 31
0.0
  0
LINE
  5
77E
  8
1外形線
 10
107.5333002653168
 20
935.58495926643059
 30
0.0
 11
107.5333002653168
 21
924.35897080344864
 31
0.0
  0
LINE
  5
77F
  8
1外形線
 10
106.2333002653167
 20
936.5376504598886
 30
0.0
 11
106.2333002653167
 21
924.15897754694424
 31
0.0
  0
LINE
  5
780
  8
1外形線
 10
107.5383987370642
 20
915.5868619184705
 30
0.0
 11
107.7568819509362
 21
916.11432705655125
 31
0.0
  0
LINE
  5
781
  8
1外形線
 10
107.5383987370642
 20
915.5868619184705
 30
0.0
 11
108.0658638751448
 21
915.36837870459863
 31
0.0
  0
LINE
  5
782
  8
1外形線
 10
112.39410836673819
 20
908.31977890486962
 30
0.0
 11
112.9650325181228
 21
908.31977890486962
 31
0.0
  0
LINE
  5
783
  8
1外形線
 10
112.39410836673819
 20
908.31977890486962
 30
0.0
 11
112.39410836673819
 21
908.89070305625455
 31
0.0
  0
ARC
  5
784
  8
1外形線
 10
128.23330026531681
 20
924.15897080344848
 30
0.0
 40
22.0
 50
203.55144786891151
 51
223.9485521310871
  0
ARC
  5
785
  8
1外形線
 10
128.23330026531681
 20
924.15897080344848
 30
0.0
 40
22.0
 50
180.0
 51
201.44855213108431
  0
LINE
  5
786
  8
1外形線
 10
107.7667601395305
 20
949.87912998552144
 30
0.0
 11
108.2936348725819
 21
950.09736864562319
 31
0.0
  0
LINE
  5
787
  8
1外形線
 10
107.7667601395304
 20
949.87912998552144
 30
0.0
 11
107.98499879963209
 21
949.35225525246983
 31
0.0
  0
ARC
  5
788
  8
1外形線
 10
110.7333002653168
 20
942.65897080344837
 30
0.0
 40
2.2999999999999989
 50
323.6934389475166
 51
110.0000000000036
  0
ARC
  5
789
  8
1外形線
 10
110.7333002653168
 20
942.65897080344837
 30
0.0
 40
1.0
 50
314.99999999999937
 51
110.0001778685466
  0
ARC
  5
78A
  8
1外形線
 10
110.9333002653167
 20
942.65897080344837
 30
0.0
 40
0.8000000000000397
 50
304.99999999993292
 51
6.976621717679115
  0
ARC
  5
78B
  8
1外形線
 10
109.0761926839659
 20
943.81172629344519
 30
0.0
 40
0.65
 50
109.9999999999982
 51
289.99955314135229
  0
ARC
  5
78C
  8
1外形線
 10
109.46713719564541
 20
944.56648611538185
 30
0.0
 40
1.5
 50
174.64140732722149
 51
242.61689691127901
  0
ARC
  5
78D
  8
1外形線
 10
108.8002307660462
 20
940.7991470839055
 30
0.0
 40
0.5
 50
225.0000000000006
 51
305.0
  0
ARC
  5
78E
  8
1外形線
 10
106.8686521691357
 20
942.73072568081614
 30
0.0
 40
0.5
 50
173.97458566919801
 51
225.00000000000111
  0
LINE
  5
78F
  8
1外形線
 10
106.5150987785424
 20
942.37717229022269
 30
0.0
 11
108.44667737545289
 21
940.44559369331228
 31
0.0
  0
LINE
  5
790
  8
1外形線
 10
109.9466539356677
 20
944.82026383125606
 30
0.0
 11
108.8538795908043
 21
944.42252649695581
 31
0.0
  0
LINE
  5
791
  8
1外形線
 10
110.3912801219911
 20
943.59866342423447
 30
0.0
 11
109.2985010134024
 21
943.20092435608001
 31
0.0
  0
LINE
  5
792
  8
1外形線
 10
111.39216141439761
 20
942.00364916801732
 30
0.0
 11
109.0870189842216
 21
940.38957106176088
 31
0.0
  0
ARC
  5
793
  8
1外形線
 10
110.7333002653168
 20
938.15897080344837
 30
0.0
 40
2.2999999999999989
 50
322.0639077517564
 51
36.306532585415241
  0
ARC
  5
794
  8
1外形線
 10
110.7333002653168
 20
938.15897080344837
 30
0.0
 40
1.0
 50
322.0639077517971
 51
106.8822024911058
  0
LINE
  5
795
  8
1外形線
 10
112.5473033020823
 20
936.74497187042016
 30
0.0
 11
111.8959532974462
 21
935.90936240933183
 31
0.0
  0
LINE
  5
796
  8
1外形線
 10
111.5219972378236
 20
937.54418865865364
 30
0.0
 11
110.8706472331873
 21
936.70857919756497
 31
0.0
  0
ARC
  5
797
  8
1外形線
 10
111.38330026531671
 20
936.30897080344835
 30
0.0
 40
0.65
 50
142.06390775176561
 51
322.06390775176612
  0
ARC
  5
798
  8
1外形線
 10
109.0333002653168
 20
935.58495926643059
 30
0.0
 40
1.5
 50
135.0
 51
180.0
  0
ARC
  5
799
  8
1外形線
 10
106.7333002653168
 20
936.5376504598886
 30
0.0
 40
0.5
 50
135.0
 51
180.0
  0
LINE
  5
79A
  8
1外形線
 10
110.442895296079
 20
939.11587464075262
 30
0.0
 11
107.9726400935369
 21
936.64561943821059
 31
0.0
  0
LINE
  5
79B
  8
1外形線
 10
111.4404070465033
 20
941.95186402226182
 30
0.0
 11
106.37974687472349
 21
936.89120385048204
 31
0.0
  0
ARC
  5
79C
  8
1外形線
 10
113.7955706648733
 20
940.40897080344848
 30
0.0
 40
1.5
 50
143.69347500592241
 51
216.30656864361501
  0
ARC
  5
79D
  8
1外形線
 10
131.23330026531681
 20
940.15897080344848
 30
0.0
 40
25.0
 50
158.4242266477869
 51
173.97458566919801
  0
LINE
  5
79E
  8
1外形線
 10
179.9333002653168
 20
935.58495926643059
 30
0.0
 11
179.9333002653166
 21
924.35897080344819
 31
0.0
  0
LINE
  5
79F
  8
1外形線
 10
181.2333002653167
 20
936.5376504598886
 30
0.0
 11
181.2333002653167
 21
924.15897754694424
 31
0.0
  0
LINE
  5
7A0
  8
1外形線
 10
179.92820179356929
 20
915.5868619184705
 30
0.0
 11
179.4007366554886
 21
915.36837870459863
 31
0.0
  0
LINE
  5
7A1
  8
1外形線
 10
179.92820179356929
 20
915.5868619184705
 30
0.0
 11
179.7097185796973
 21
916.11432705655125
 31
0.0
  0
LINE
  5
7A2
  8
1外形線
 10
175.0724921638953
 20
908.31977890486962
 30
0.0
 11
175.0724921638953
 21
908.89070305625455
 31
0.0
  0
LINE
  5
7A3
  8
1外形線
 10
175.07249216389519
 20
908.31977890486962
 30
0.0
 11
174.5015680125106
 21
908.31977890486962
 31
0.0
  0
ARC
  5
7A4
  8
1外形線
 10
159.23330026531681
 20
924.15897080344848
 30
0.0
 40
22.0
 50
316.05144786891282
 51
336.44855213108838
  0
ARC
  5
7A5
  8
1外形線
 10
159.23330026531681
 20
924.15897080344848
 30
0.0
 40
22.0
 50
338.55144786891572
 51
0.0
  0
LINE
  5
7A6
  8
1外形線
 10
179.69984039110301
 20
949.87912998552144
 30
0.0
 11
179.4816017310014
 21
949.35225525246983
 31
0.0
  0
LINE
  5
7A7
  8
1外形線
 10
179.6998403911029
 20
949.87912998552144
 30
0.0
 11
179.17296565805151
 21
950.09736864562319
 31
0.0
  0
LINE
  5
7A8
  8
1外形線
 10
180.95150175209119
 20
942.37717229022269
 30
0.0
 11
179.01992315518061
 21
940.44559369331228
 31
0.0
  0
ARC
  5
7A9
  8
1外形線
 10
177.99946333498821
 20
944.56648611538185
 30
0.0
 40
1.5
 50
296.73112065883612
 51
5.3585926727784043
  0
ARC
  5
7AA
  8
1外形線
 10
180.59794836149791
 20
942.73072568081614
 30
0.0
 40
0.5
 50
314.99999999999869
 51
6.0254143308019268
  0
ARC
  5
7AB
  8
1外形線
 10
176.73330026531681
 20
942.65897080344837
 30
0.0
 40
2.2999999999999989
 50
69.999999999996305
 51
216.3065610524832
  0
ARC
  5
7AC
  8
1外形線
 10
176.73330026531681
 20
942.65897080344837
 30
0.0
 40
1.0
 50
69.999822131453314
 51
225.0000000000006
  0
LINE
  5
7AD
  8
1外形線
 10
176.07443911623591
 20
942.00364916801732
 30
0.0
 11
178.3795815464118
 21
940.38957106176088
 31
0.0
  0
ARC
  5
7AE
  8
1外形線
 10
176.5333002653168
 20
942.65897080344837
 30
0.0
 40
0.8000000000000397
 50
178.9563740822436
 51
235.0000000000677
  0
LINE
  5
7AF
  8
1外形線
 10
177.0753204086424
 20
943.59866342423447
 30
0.0
 11
178.16809475348651
 21
943.20092608994128
 31
0.0
  0
LINE
  5
7B0
  8
1外形線
 10
177.5199465949658
 20
944.82026383125606
 30
0.0
 11
178.59341044987011
 21
944.42955494051012
 31
0.0
  0
ARC
  5
7B1
  8
1外形線
 10
178.39040784664829
 20
943.81172629345224
 30
0.0
 40
0.65
 50
249.99999999997721
 51
71.385471883493338
  0
ARC
  5
7B2
  8
1外形線
 10
178.6663697645873
 20
940.7991470839055
 30
0.0
 40
0.5
 50
234.99999999999989
 51
315.0
  0
ARC
  5
7B3
  8
1外形線
 10
178.4333002653168
 20
935.58495926643059
 30
0.0
 40
1.5
 50
0.0
 51
45.0
  0
ARC
  5
7B4
  8
1外形線
 10
180.73330026531681
 20
936.5376504598886
 30
0.0
 40
0.5
 50
0.0
 51
45.0
  0
ARC
  5
7B5
  8
1外形線
 10
176.73330026531681
 20
938.15897080344837
 30
0.0
 40
1.0
 50
73.117797508894199
 51
217.93609224820281
  0
ARC
  5
7B6
  8
1外形線
 10
176.73330026531681
 20
938.15897080344837
 30
0.0
 40
2.2999999999999989
 50
143.69346741458469
 51
217.9360922482434
  0
ARC
  5
7B7
  8
1外形線
 10
176.08330026531669
 20
936.30897080344835
 30
0.0
 40
0.65
 50
217.93609224822859
 51
37.936092248234353
  0
LINE
  5
7B8
  8
1外形線
 10
175.94460329281
 20
937.54418865865364
 30
0.0
 11
176.5959532974461
 21
936.70857919756497
 31
0.0
  0
LINE
  5
7B9
  8
1外形線
 10
174.9192972285511
 20
936.74497187042016
 30
0.0
 11
175.5706472331874
 21
935.90936240933183
 31
0.0
  0
LINE
  5
7BA
  8
1外形線
 10
177.0237052345544
 20
939.11587464075262
 30
0.0
 11
179.49396043709649
 21
936.64561943821059
 31
0.0
  0
LINE
  5
7BB
  8
1外形線
 10
176.0261934841302
 20
941.95186402226182
 30
0.0
 11
181.08685365591001
 21
936.89120385048204
 31
0.0
  0
ARC
  5
7BC
  8
1外形線
 10
173.6710298657602
 20
940.40897080344848
 30
0.0
 40
1.5
 50
323.69343135638491
 51
36.306524994077563
  0
ARC
  5
7BD
  8
1外形線
 10
156.23330026531681
 20
940.15897080344848
 30
0.0
 40
25.0
 50
6.0254143308019268
 51
21.575773352213002
  0
LINE
  5
7BE
  8
1外形線
 10
156.2333002653167
 20
965.15897080344848
 30
0.0
 11
131.2333002653167
 21
965.15897080344848
 31
0.0
  0
LINE
  5
7BF
  8
1外形線
 10
156.2333029627151
 20
963.85897080344853
 30
0.0
 11
131.2333002653167
 21
963.85897080344853
 31
0.0
  0
ARC
  5
7C0
  8
1外形線
 10
131.23330026531681
 20
940.15897080344848
 30
0.0
 40
25.0
 50
113.4242266477886
 51
134.0757733522108
  0
LINE
  5
7C1
  8
1外形線
 10
113.27278802317819
 20
958.11948304558666
 30
0.0
 11
113.27278802317819
 21
957.54919794400053
 31
0.0
  0
LINE
  5
7C2
  8
1外形線
 10
113.27278802317841
 20
958.11948304558666
 30
0.0
 11
113.8430731247643
 21
958.11948304558666
 31
0.0
  0
LINE
  5
7C3
  8
1外形線
 10
121.5131410832434
 20
963.625510929234
 30
0.0
 11
122.0400158162947
 21
963.40727226913259
 31
0.0
  0
ARC
  5
7C4
  8
1外形線
 10
131.23330026531681
 20
940.15897080344848
 30
0.0
 40
25.0
 50
90.0
 51
111.57577335221301
  0
LINE
  5
7C5
  8
1外形線
 10
121.5131410832432
 20
963.62551092923422
 30
0.0
 11
121.29490242314139
 21
963.0986361961825
 31
0.0
  0
ARC
  5
7C6
  8
1外形線
 10
156.23330026531681
 20
940.15897080344848
 30
0.0
 40
25.0
 50
68.424226647787009
 51
90.0
  0
LINE
  5
7C7
  8
1外形線
 10
174.19381250745499
 20
958.11948304558666
 30
0.0
 11
173.62352740586911
 21
958.11948304558666
 31
0.0
  0
LINE
  5
7C8
  8
1外形線
 10
174.19381250745519
 20
958.11948304558666
 30
0.0
 11
174.19381250745519
 21
957.54919794400053
 31
0.0
  0
LINE
  5
7C9
  8
1外形線
 10
165.95345944739
 20
963.625510929234
 30
0.0
 11
165.4265847143387
 21
963.40727226913259
 31
0.0
  0
LINE
  5
7CA
  8
1外形線
 10
165.9534594473902
 20
963.62551092923422
 30
0.0
 11
166.17169810749201
 21
963.0986361961825
 31
0.0
  0
ARC
  5
7CB
  8
1外形線
 10
156.23330026531681
 20
940.15897080344848
 30
0.0
 40
25.0
 50
45.924226647789212
 51
66.575773352211371
  0
TEXT
  5
7CC
  8
1外形線
 10
75.627221794463139
 20
1259.8186925915099
 30
0.0
 40
10.0
  1
SD-66
  7
KANJI
  0
LINE
  5
7CD
  8
1外形線
 10
263.7333002653167
 20
1145.158970803448
 30
0.0
 11
263.7333002653167
 21
1085.158970803448
 31
0.0
  0
ARC
  5
7CE
  8
1外形線
 10
173.23330026531789
 20
1204.5381881263991
 30
0.0
 40
0.5
 50
359.99999999999341
 51
44.894781689019759
  0
ARC
  5
7CF
  8
1外形線
 10
168.0208005736379
 20
1204.3089708034479
 30
0.0
 40
0.65
 50
194.99987161238229
 51
15.00005741669062
  0
ARC
  5
7D0
  8
1外形線
 10
119.4457999569955
 20
1204.3089708034479
 30
0.0
 40
0.65
 50
164.99994258330929
 51
345.00012838761762
  0
ARC
  5
7D1
  8
1外形線
 10
114.23330026531541
 20
1204.5381881263991
 30
0.0
 40
0.5
 50
135.10521831098021
 51
180.00000000000651
  0
LINE
  5
7D2
  8
1外形線
 10
117.94289529608029
 20
1207.1158746407541
 30
0.0
 11
115.4726400935369
 21
1204.6456194382099
 31
0.0
  0
LINE
  5
7D3
  8
1外形線
 10
118.8179483384953
 20
1204.477203811942
 30
0.0
 11
119.1992263300244
 21
1205.9001526481361
 31
0.0
  0
LINE
  5
7D4
  8
1外形線
 10
120.0736521210563
 20
1204.140739831013
 30
0.0
 11
120.4549301118216
 21
1205.5636886643581
 31
0.0
  0
LINE
  5
7D5
  8
1外形線
 10
169.52370523455309
 20
1207.115874640753
 30
0.0
 11
171.99396043709649
 21
1204.6456194382099
 31
0.0
  0
LINE
  5
7D6
  8
1外形線
 10
168.64865219213809
 20
1204.477203811942
 30
0.0
 11
168.267374200609
 21
1205.9001526481361
 31
0.0
  0
LINE
  5
7D7
  8
1外形線
 10
167.392948409577
 20
1204.140739831013
 30
0.0
 11
167.01167041881169
 21
1205.5636886643581
 31
0.0
  0
LINE
  5
7D8
  8
1外形線
 10
139.73330026531681
 20
1180.158970803448
 30
0.0
 11
147.73330026531681
 21
1180.158970803448
 31
0.0
  0
LINE
  5
7D9
  8
1外形線
 10
132.7333002653167
 20
1175.158970803448
 30
0.0
 11
140.48330026531681
 21
1175.158970803448
 31
0.0
  0
ARC
  5
7DA
  8
1外形線
 10
139.73330026531681
 20
1179.158970803448
 30
0.0
 40
1.0
 50
90.0
 51
180.0
  0
ARC
  5
7DB
  8
1外形線
 10
132.7333002653167
 20
1194.158970803448
 30
0.0
 40
19.0
 50
226.21929214721931
 51
246.2807078527789
  0
ARC
  5
7DC
  8
1外形線
 10
132.53330026531671
 20
1194.158970803448
 30
0.0
 40
17.5
 50
180.0
 51
270.0
  0
LINE
  5
7DD
  8
1外形線
 10
136.2333002653167
 20
1176.658970803448
 30
0.0
 11
132.53330026531671
 21
1176.658970803448
 31
0.0
  0
LINE
  5
7DE
  8
1外形線
 10
125.3092416774339
 20
1176.2357078727291
 30
0.0
 11
125.0904349736998
 21
1176.763953984422
 31
0.0
  0
LINE
  5
7DF
  8
1外形線
 10
125.3092416774339
 20
1176.2357078727291
 30
0.0
 11
125.8374877891267
 21
1176.454514576463
 31
0.0
  0
ARC
  5
7E0
  8
1外形線
 10
132.7333002653167
 20
1194.158970803448
 30
0.0
 40
19.0
 50
248.7192921472203
 51
270.0
  0
ARC
  5
7E1
  8
1外形線
 10
136.2333002653167
 20
1179.158970803448
 30
0.0
 40
2.5
 50
270.0
 51
0.0
  0
ARC
  5
7E2
  8
1外形線
 10
132.7333002653167
 20
1194.158970803448
 30
0.0
 40
19.0
 50
203.71929214722019
 51
223.78070785277711
  0
ARC
  5
7E3
  8
1外形線
 10
116.5333002653167
 20
1203.5849592664299
 30
0.0
 40
1.5
 50
134.9999999999994
 51
180.0
  0
ARC
  5
7E4
  8
1外形線
 10
132.7333002653167
 20
1194.158970803448
 30
0.0
 40
19.0
 50
180.0
 51
201.28070785278081
  0
LINE
  5
7E5
  8
1外形線
 10
114.81003733459769
 20
1186.7349122155649
 30
0.0
 11
115.3382834462906
 21
1186.516105511831
 31
0.0
  0
LINE
  5
7E6
  8
1外形線
 10
114.81003733459779
 20
1186.7349122155649
 30
0.0
 11
115.0288440383318
 21
1187.263158327258
 31
0.0
  0
LINE
  5
7E7
  8
1外形線
 10
115.0333002653167
 20
1203.5849592664299
 30
0.0
 11
115.0333002653167
 21
1194.158970803448
 31
0.0
  0
LINE
  5
7E8
  8
1外形線
 10
113.73330026531529
 20
1204.5381881263991
 30
0.0
 11
113.7333002653167
 21
1194.158970803448
 31
0.0
  0
LINE
  5
7E9
  8
1外形線
 10
119.0154287102978
 20
1180.4410992484291
 30
0.0
 11
119.0154287102978
 21
1181.0128687195599
 31
0.0
  0
LINE
  5
7EA
  8
1外形線
 10
119.0154287102978
 20
1180.4410992484291
 30
0.0
 11
119.5871981814287
 21
1180.4410992484291
 31
0.0
  0
ARC
  5
7EB
  8
1外形線
 10
154.73330026531681
 20
1194.158970803448
 30
0.0
 40
19.0
 50
293.71929214722093
 51
313.78070785278049
  0
ARC
  5
7EC
  8
1外形線
 10
147.73330026531681
 20
1179.158970803448
 30
0.0
 40
1.0
 50
0.0
 51
90.0
  0
ARC
  5
7ED
  8
1外形線
 10
154.93330026531669
 20
1194.158970803448
 30
0.0
 40
17.5
 50
270.0
 51
0.0
  0
ARC
  5
7EE
  8
1外形線
 10
154.73330026531681
 20
1194.158970803448
 30
0.0
 40
19.0
 50
270.0
 51
291.28070785277959
  0
LINE
  5
7EF
  8
1外形線
 10
151.23330026531681
 20
1176.658970803448
 30
0.0
 11
154.93330026531669
 21
1176.658970803448
 31
0.0
  0
LINE
  5
7F0
  8
1外形線
 10
162.15735885319961
 20
1176.2357078727291
 30
0.0
 11
161.6291127415067
 21
1176.454514576463
 31
0.0
  0
LINE
  5
7F1
  8
1外形線
 10
162.15735885319961
 20
1176.2357078727291
 30
0.0
 11
162.3761655569335
 21
1176.763953984422
 31
0.0
  0
LINE
  5
7F2
  8
1外形線
 10
144.98330026531681
 20
1178.158970803448
 30
0.0
 11
142.48330026531681
 21
1178.158970803448
 31
0.0
  0
LINE
  5
7F3
  8
1外形線
 10
145.60830026531681
 20
1176.658970803448
 30
0.0
 11
141.85830026531681
 21
1176.658970803448
 31
0.0
  0
LINE
  5
7F4
  8
1外形線
 10
140.98330026531681
 20
1175.658970803448
 30
0.0
 11
140.98330026531681
 21
1176.658970803448
 31
0.0
  0
ARC
  5
7F5
  8
1外形線
 10
140.48330026531681
 20
1175.658970803448
 30
0.0
 40
0.5
 50
270.0
 51
0.0
  0
LINE
  5
7F6
  8
1外形線
 10
146.48330026531681
 20
1175.658970803448
 30
0.0
 11
146.48330026531681
 21
1176.658970803448
 31
0.0
  0
ARC
  5
7F7
  8
1外形線
 10
146.98330026531681
 20
1175.658970803448
 30
0.0
 40
0.5
 50
180.0
 51
270.0
  0
ARC
  5
7F8
  8
1外形線
 10
142.48330026531681
 20
1176.658970803448
 30
0.0
 40
1.5
 50
90.0
 51
180.0
  0
LINE
  5
7F9
  8
1外形線
 10
141.85830026531681
 20
1178.0225598177781
 30
0.0
 11
141.85830026531681
 21
1176.658970803448
 31
0.0
  0
ARC
  5
7FA
  8
1外形線
 10
144.98330026531681
 20
1176.658970803448
 30
0.0
 40
1.5
 50
0.0
 51
90.0
  0
LINE
  5
7FB
  8
1外形線
 10
145.60830026531681
 20
1178.0225598177781
 30
0.0
 11
145.60830026531681
 21
1176.658970803448
 31
0.0
  0
ARC
  5
7FC
  8
1外形線
 10
151.23330026531681
 20
1179.158970803448
 30
0.0
 40
2.5
 50
180.0
 51
270.0
  0
LINE
  5
7FD
  8
1外形線
 10
154.73330026531681
 20
1175.158970803448
 30
0.0
 11
146.98330026531681
 21
1175.158970803448
 31
0.0
  0
ARC
  5
7FE
  8
1外形線
 10
170.93330026531669
 20
1203.5849592664299
 30
0.0
 40
1.5
 50
0.0
 51
45.0
  0
ARC
  5
7FF
  8
1外形線
 10
154.73330026531681
 20
1194.158970803448
 30
0.0
 40
19.0
 50
338.71929214721911
 51
0.0
  0
LINE
  5
800
  8
1外形線
 10
172.65656319603571
 20
1186.7349122155649
 30
0.0
 11
172.1283170843428
 21
1186.516105511831
 31
0.0
  0
LINE
  5
801
  8
1外形線
 10
172.65656319603571
 20
1186.7349122155649
 30
0.0
 11
172.43775649230159
 21
1187.263158327258
 31
0.0
  0
LINE
  5
802
  8
1外形線
 10
173.73330026531821
 20
1204.5381881263991
 30
0.0
 11
173.73330026531681
 21
1194.158970803448
 31
0.0
  0
LINE
  5
803
  8
1外形線
 10
172.43330026531669
 20
1203.5849592664299
 30
0.0
 11
172.43330026531669
 21
1194.158970803448
 31
0.0
  0
LINE
  5
804
  8
1外形線
 10
168.45117182033559
 20
1180.4410992484291
 30
0.0
 11
167.87940234920461
 21
1180.4410992484291
 31
0.0
  0
LINE
  5
805
  8
1外形線
 10
168.45117182033559
 20
1180.4410992484291
 30
0.0
 11
168.45117182033559
 21
1181.0128687195599
 31
0.0
  0
ARC
  5
806
  8
1外形線
 10
154.73330026531681
 20
1194.158970803448
 30
0.0
 40
19.0
 50
316.21929214722269
 51
336.28070785277959
  0
LINE
  5
807
  8
1外形線
 10
135.7333002653167
 20
1234.158970803448
 30
0.0
 11
151.73330026531681
 21
1234.158970803448
 31
0.0
  0
LINE
  5
808
  8
1外形線
 10
135.7333002653167
 20
1232.8589708034481
 30
0.0
 11
151.73329891661751
 21
1232.8589708034481
 31
0.0
  0
ARC
  5
809
  8
1外形線
 10
135.7333002653167
 20
1212.158970803448
 30
0.0
 40
22.0
 50
113.5514478689155
 51
133.94855213108531
  0
ARC
  5
80A
  8
1外形線
 10
135.7333002653167
 20
1212.158970803448
 30
0.0
 40
20.699999999999989
 50
90.0
 51
178.40657823462541
  0
ARC
  5
80B
  8
1外形線
 10
118.2333002653167
 20
1210.658970803448
 30
0.0
 40
1.0
 50
305.67122919997507
 51
110.00000000000129
  0
ARC
  5
80C
  8
1外形線
 10
118.2333002653167
 20
1210.658970803448
 30
0.0
 40
2.2999999999999989
 50
323.69345318104422
 51
110.0000000000006
  0
LINE
  5
80D
  8
1外形線
 10
118.3738915899709
 20
1209.402423961415
 30
0.0
 11
116.7271952646788
 21
1208.249394781303
 31
0.0
  0
ARC
  5
80E
  8
1外形線
 10
118.2333002653167
 20
1206.158970803448
 30
0.0
 40
1.0
 50
344.99990858296979
 51
106.88220249109131
  0
ARC
  5
80F
  8
1外形線
 10
135.7333002653167
 20
1212.158970803448
 30
0.0
 40
22.0
 50
136.0514478689129
 51
156.44855213108849
  0
LINE
  5
810
  8
1外形線
 10
118.9463846458749
 20
1209.9770235474521
 30
0.0
 11
113.87909820369271
 21
1204.891091653644
 31
0.0
  0
LINE
  5
811
  8
1外形線
 10
115.038398737064
 20
1220.731079688426
 30
0.0
 11
115.5658638751448
 21
1220.9495629022981
 31
0.0
  0
LINE
  5
812
  8
1外形線
 10
115.0383987370639
 20
1220.731079688426
 30
0.0
 11
115.25688195093601
 21
1220.2036145503459
 31
0.0
  0
ARC
  5
813
  8
1外形線
 10
116.5333084605014
 20
1212.5798970449951
 30
0.0
 40
1.5
 50
174.0812912071994
 51
262.2319068607315
  0
LINE
  5
814
  8
1外形線
 10
113.7333002653167
 20
1212.158970803448
 30
0.0
 11
113.7333002653167
 21
1210.866077584634
 31
0.0
  0
ARC
  5
815
  8
1外形線
 10
116.38330026531671
 20
1211.7415191946409
 30
0.0
 40
0.65
 50
110.00000000000129
 51
289.99999999999909
  0
LINE
  5
816
  8
1外形線
 10
117.891280121991
 20
1211.598663424234
 30
0.0
 11
116.60561335847839
 21
1211.1307189911299
 31
0.0
  0
ARC
  5
817
  8
1外形線
 10
114.2333002653167
 20
1210.866077584634
 30
0.0
 40
0.5
 50
180.0
 51
225.0
  0
LINE
  5
818
  8
1外形線
 10
113.87974687472339
 20
1210.5125241940409
 30
0.0
 11
116.08614306356
 21
1208.306128005205
 31
0.0
  0
ARC
  5
819
  8
1外形線
 10
116.4404070465032
 20
1208.658970803448
 30
0.0
 40
0.5
 50
226.1890109453486
 51
305.67355462186282
  0
LINE
  5
81A
  8
1外形線
 10
117.4466539356677
 20
1212.8202638312559
 30
0.0
 11
116.1609871721551
 21
1212.3523193981521
 31
0.0
  0
ARC
  5
81B
  8
1外形線
 10
135.7333002653167
 20
1212.158970803448
 30
0.0
 40
22.0
 50
158.55144786891569
 51
180.0
  0
LINE
  5
81C
  8
1外形線
 10
119.894108366738
 20
1227.998162702027
 30
0.0
 11
119.894108366738
 21
1227.427238550642
 31
0.0
  0
LINE
  5
81D
  8
1外形線
 10
119.894108366738
 20
1227.998162702027
 30
0.0
 11
120.4650325181229
 21
1227.998162702027
 31
0.0
  0
ARC
  5
81E
  8
1外形線
 10
118.2333002653167
 20
1206.158970803448
 30
0.0
 40
2.2999999999999989
 50
345.00002810504583
 51
36.306546818955773
  0
ARC
  5
81F
  8
1外形線
 10
121.2955706648732
 20
1208.408970803448
 30
0.0
 40
1.5
 50
143.69345318104419
 51
216.3065468189557
  0
LINE
  5
820
  8
1外形線
 10
127.16119138033849
 20
1232.853872331701
 30
0.0
 11
127.68865651841919
 21
1232.6353891178289
 31
0.0
  0
LINE
  5
821
  8
1外形線
 10
127.16119138033849
 20
1232.853872331701
 30
0.0
 11
126.9427081664665
 21
1232.3264071936201
 31
0.0
  0
ARC
  5
822
  8
1外形線
 10
135.7333002653167
 20
1212.158970803448
 30
0.0
 40
22.0
 50
90.0
 51
111.4485521310862
  0
ARC
  5
823
  8
1外形線
 10
151.73330026531681
 20
1212.158970803448
 30
0.0
 40
22.0
 50
46.05144786891519
 51
66.448552131084483
  0
ARC
  5
824
  8
1外形線
 10
151.73330026531681
 20
1212.158970803448
 30
0.0
 40
20.699999999999989
 50
0.918395391872901
 51
90.0
  0
LINE
  5
825
  8
1外形線
 10
167.57249216389539
 20
1227.998162702027
 30
0.0
 11
167.57249216389539
 21
1227.427238550642
 31
0.0
  0
LINE
  5
826
  8
1外形線
 10
167.5724921638953
 20
1227.998162702027
 30
0.0
 11
167.00156801251049
 21
1227.998162702027
 31
0.0
  0
LINE
  5
827
  8
1外形線
 10
172.42820179356929
 20
1220.731079688426
 30
0.0
 11
171.9007366554886
 21
1220.9495629022981
 31
0.0
  0
LINE
  5
828
  8
1外形線
 10
172.4282017935694
 20
1220.731079688426
 30
0.0
 11
172.20971857969741
 21
1220.2036145503459
 31
0.0
  0
ARC
  5
829
  8
1外形線
 10
170.93329207013201
 20
1212.5798970449951
 30
0.0
 40
1.5
 50
277.76809313926839
 51
356.59310836447497
  0
ARC
  5
82A
  8
1外形線
 10
171.08330026531669
 20
1211.7415191946409
 30
0.0
 40
0.65
 50
250.0000000000008
 51
69.999999999998622
  0
LINE
  5
82B
  8
1外形線
 10
173.7333002653167
 20
1212.158970803448
 30
0.0
 11
173.7333002653167
 21
1210.866077584634
 31
0.0
  0
LINE
  5
82C
  8
1外形線
 10
173.58685365591001
 20
1210.5125241940409
 30
0.0
 11
171.3804574670734
 21
1208.3061280052041
 31
0.0
  0
ARC
  5
82D
  8
1外形線
 10
171.02619348413009
 20
1208.658970803448
 30
0.0
 40
0.5
 50
234.32644537813641
 51
313.81098905464683
  0
ARC
  5
82E
  8
1外形線
 10
173.2333002653167
 20
1210.866077584634
 30
0.0
 40
0.5
 50
315.0
 51
0.0
  0
ARC
  5
82F
  8
1外形線
 10
169.23330026531681
 20
1210.658970803448
 30
0.0
 40
1.0
 50
69.999999999998622
 51
234.32877080002481
  0
ARC
  5
830
  8
1外形線
 10
169.23330026531681
 20
1210.658970803448
 30
0.0
 40
2.2999999999999989
 50
69.999999999999332
 51
216.30654681895521
  0
ARC
  5
831
  8
1外形線
 10
169.2333002653167
 20
1206.158970803448
 30
0.0
 40
1.0
 50
73.117797508908623
 51
195.00009141703001
  0
ARC
  5
832
  8
1外形線
 10
166.1710298657602
 20
1208.408970803448
 30
0.0
 40
1.5
 50
323.69345318104422
 51
36.306546818955773
  0
ARC
  5
833
  8
1外形線
 10
169.2333002653167
 20
1206.158970803448
 30
0.0
 40
2.2999999999999989
 50
143.69345318104419
 51
194.99997189495409
  0
LINE
  5
834
  8
1外形線
 10
169.0927089406625
 20
1209.402423961415
 30
0.0
 11
170.73940526595459
 21
1208.249394781303
 31
0.0
  0
LINE
  5
835
  8
1外形線
 10
169.5753204086424
 20
1211.598663424234
 30
0.0
 11
170.86098717215501
 21
1211.1307189911299
 31
0.0
  0
LINE
  5
836
  8
1外形線
 10
170.01994659496569
 20
1212.8202638312559
 30
0.0
 11
171.30561335847841
 21
1212.3523193981521
 31
0.0
  0
ARC
  5
837
  8
1外形線
 10
151.73330026531681
 20
1212.158970803448
 30
0.0
 40
22.0
 50
0.0
 51
21.448552131084281
  0
ARC
  5
838
  8
1外形線
 10
151.73330026531681
 20
1212.158970803448
 30
0.0
 40
22.0
 50
23.551447868911499
 51
43.948552131087112
  0
LINE
  5
839
  8
1外形線
 10
168.5202158847585
 20
1209.9770235474521
 30
0.0
 11
173.58750232694069
 21
1204.891091653644
 31
0.0
  0
ARC
  5
83A
  8
1外形線
 10
151.73330026531681
 20
1212.158970803448
 30
0.0
 40
22.0
 50
68.551447868913712
 51
90.0
  0
LINE
  5
83B
  8
1外形線
 10
160.30540915029491
 20
1232.853872331701
 30
0.0
 11
160.5238923641669
 21
1232.3264071936201
 31
0.0
  0
LINE
  5
83C
  8
1外形線
 10
160.30540915029499
 20
1232.853872331701
 30
0.0
 11
159.77794401221411
 21
1232.6353891178289
 31
0.0
  0
LINE
  5
83D
  8
1外形線
 10
263.7333002653167
 20
1234.158970803448
 30
0.0
 11
263.7333002653167
 21
1175.158970803448
 31
0.0
  0
ARC
  5
83E
  8
1外形線
 10
318.7333002653167
 20
1115.158970803448
 30
0.0
 40
1.8999999999999999
 50
270.0
 51
90.0
  0
LINE
  5
83F
  8
1外形線
 10
308.7333002653167
 20
1117.0589708034479
 30
0.0
 11
318.7333002653167
 21
1117.0589708034479
 31
0.0
  0
LINE
  5
840
  8
1外形線
 10
318.7333002653167
 20
1113.2589708034479
 30
0.0
 11
308.7333002653167
 21
1113.2589708034479
 31
0.0
  0
ARC
  5
841
  8
1外形線
 10
308.7333002653167
 20
1115.158970803448
 30
0.0
 40
1.8999999999999999
 50
90.0
 51
270.0
  0
LINE
  5
842
  8
1外形線
 10
418.7333002653167
 20
1113.2589708034479
 30
0.0
 11
408.7333002653167
 21
1113.2589708034479
 31
0.0
  0
LINE
  5
843
  8
1外形線
 10
408.7333002653167
 20
1117.0589708034479
 30
0.0
 11
418.7333002653167
 21
1117.0589708034479
 31
0.0
  0
ARC
  5
844
  8
1外形線
 10
408.7333002653167
 20
1115.158970803448
 30
0.0
 40
1.8999999999999999
 50
90.0
 51
270.0
  0
ARC
  5
845
  8
1外形線
 10
418.7333002653167
 20
1115.158970803448
 30
0.0
 40
1.8999999999999999
 50
270.0
 51
90.0
  0
LINE
  5
846
  8
1外形線
 10
818.73330026531664
 20
832.75897080344839
 30
0.0
 11
808.73330026531664
 21
832.75897080344839
 31
0.0
  0
LINE
  5
847
  8
1外形線
 10
808.73330026531664
 20
836.55897080344835
 30
0.0
 11
818.73330026531664
 21
836.55897080344835
 31
0.0
  0
ARC
  5
848
  8
1外形線
 10
518.73330026531676
 20
834.65897080344826
 30
0.0
 40
1.8999999999999999
 50
270.0
 51
90.0
  0
LINE
  5
849
  8
1外形線
 10
518.73330026531676
 20
832.75897080344839
 30
0.0
 11
508.7333002653167
 21
832.75897080344839
 31
0.0
  0
LINE
  5
84A
  8
1外形線
 10
508.7333002653167
 20
836.55897080344835
 30
0.0
 11
518.73330026531676
 21
836.55897080344835
 31
0.0
  0
ARC
  5
84B
  8
1外形線
 10
508.7333002653167
 20
834.65897080344826
 30
0.0
 40
1.8999999999999999
 50
90.0
 51
270.0
  0
LINE
  5
84C
  8
1外形線
 10
618.73330026531676
 20
832.75897080344839
 30
0.0
 11
608.73330026531664
 21
832.75897080344839
 31
0.0
  0
LINE
  5
84D
  8
1外形線
 10
608.73330026531664
 20
836.55897080344835
 30
0.0
 11
618.73330026531676
 21
836.55897080344835
 31
0.0
  0
ARC
  5
84E
  8
1外形線
 10
608.73330026531664
 20
834.65897080344826
 30
0.0
 40
1.8999999999999999
 50
90.0
 51
270.0
  0
ARC
  5
84F
  8
1外形線
 10
618.73330026531676
 20
834.65897080344826
 30
0.0
 40
1.8999999999999999
 50
270.0
 51
90.0
  0
ARC
  5
850
  8
1外形線
 10
718.73330026531676
 20
834.65897080344826
 30
0.0
 40
1.8999999999999999
 50
270.0
 51
90.0
  0
LINE
  5
851
  8
1外形線
 10
718.73330026531676
 20
832.75897080344839
 30
0.0
 11
708.73330026531664
 21
832.75897080344839
 31
0.0
  0
LINE
  5
852
  8
1外形線
 10
708.73330026531664
 20
836.55897080344835
 30
0.0
 11
718.73330026531676
 21
836.55897080344835
 31
0.0
  0
ARC
  5
853
  8
1外形線
 10
708.73330026531664
 20
834.65897080344826
 30
0.0
 40
1.8999999999999999
 50
90.0
 51
270.0
  0
ARC
  5
854
  8
1外形線
 10
808.73330026531664
 20
834.65897080344826
 30
0.0
 40
1.8999999999999999
 50
90.0
 51
270.0
  0
ARC
  5
855
  8
1外形線
 10
818.73330026531664
 20
834.65897080344826
 30
0.0
 40
1.8999999999999999
 50
270.0
 51
90.0
  0
ARC
  5
856
  8
1外形線
 10
918.73330026531664
 20
834.65897080344826
 30
0.0
 40
1.8999999999999999
 50
270.0
 51
90.0
  0
LINE
  5
857
  8
1外形線
 10
918.73330026531664
 20
832.75897080344839
 30
0.0
 11
908.73330026531664
 21
832.75897080344839
 31
0.0
  0
LINE
  5
858
  8
1外形線
 10
908.73330026531664
 20
836.55897080344835
 30
0.0
 11
918.73330026531664
 21
836.55897080344835
 31
0.0
  0
ARC
  5
859
  8
1外形線
 10
908.73330026531664
 20
834.65897080344826
 30
0.0
 40
1.8999999999999999
 50
90.0
 51
270.0
  0
LINE
  5
85A
  8
1外形線
 10
1018.733300265316
 20
832.75897080344839
 30
0.0
 11
1008.733300265316
 21
832.75897080344839
 31
0.0
  0
LINE
  5
85B
  8
1外形線
 10
1008.733300265316
 20
836.55897080344835
 30
0.0
 11
1018.733300265316
 21
836.55897080344835
 31
0.0
  0
ARC
  5
85C
  8
1外形線
 10
1008.733300265316
 20
834.65897080344826
 30
0.0
 40
1.8999999999999999
 50
90.0
 51
270.0
  0
ARC
  5
85D
  8
1外形線
 10
1018.733300265316
 20
834.65897080344826
 30
0.0
 40
1.8999999999999999
 50
270.0
 51
90.0
  0
ARC
  5
85E
  8
1外形線
 10
1118.7333002653161
 20
834.65897080344826
 30
0.0
 40
1.8999999999999999
 50
270.0
 51
90.0
  0
LINE
  5
85F
  8
1外形線
 10
1118.7333002653161
 20
832.75897080344839
 30
0.0
 11
1108.7333002653161
 21
832.75897080344839
 31
0.0
  0
LINE
  5
860
  8
1外形線
 10
1108.7333002653161
 20
836.55897080344835
 30
0.0
 11
1118.7333002653161
 21
836.55897080344835
 31
0.0
  0
ARC
  5
861
  8
1外形線
 10
1108.7333002653161
 20
834.65897080344826
 30
0.0
 40
1.8999999999999999
 50
90.0
 51
270.0
  0
LINE
  5
862
  8
1外形線
 10
808.73330026531664
 20
1117.0589708034479
 30
0.0
 11
818.73330026531664
 21
1117.0589708034479
 31
0.0
  0
LINE
  5
863
  8
1外形線
 10
818.73330026531664
 20
1113.2589708034479
 30
0.0
 11
808.73330026531664
 21
1113.2589708034479
 31
0.0
  0
ARC
  5
864
  8
1外形線
 10
518.73330026531676
 20
1115.158970803448
 30
0.0
 40
1.8999999999999999
 50
270.0
 51
90.0
  0
ARC
  5
865
  8
1外形線
 10
508.7333002653167
 20
1115.158970803448
 30
0.0
 40
1.8999999999999999
 50
90.0
 51
270.0
  0
LINE
  5
866
  8
1外形線
 10
508.7333002653167
 20
1117.0589708034479
 30
0.0
 11
518.73330026531676
 21
1117.0589708034479
 31
0.0
  0
LINE
  5
867
  8
1外形線
 10
518.73330026531676
 20
1113.2589708034479
 30
0.0
 11
508.7333002653167
 21
1113.2589708034479
 31
0.0
  0
LINE
  5
868
  8
1外形線
 10
608.73330026531664
 20
1117.0589708034479
 30
0.0
 11
618.73330026531676
 21
1117.0589708034479
 31
0.0
  0
LINE
  5
869
  8
1外形線
 10
618.73330026531676
 20
1113.2589708034479
 30
0.0
 11
608.73330026531664
 21
1113.2589708034479
 31
0.0
  0
ARC
  5
86A
  8
1外形線
 10
608.73330026531664
 20
1115.158970803448
 30
0.0
 40
1.8999999999999999
 50
90.0
 51
270.0
  0
ARC
  5
86B
  8
1外形線
 10
618.73330026531676
 20
1115.158970803448
 30
0.0
 40
1.8999999999999999
 50
270.0
 51
90.0
  0
ARC
  5
86C
  8
1外形線
 10
708.73330026531664
 20
1115.158970803448
 30
0.0
 40
1.8999999999999999
 50
90.0
 51
270.0
  0
LINE
  5
86D
  8
1外形線
 10
708.73330026531664
 20
1117.0589708034479
 30
0.0
 11
718.73330026531676
 21
1117.0589708034479
 31
0.0
  0
LINE
  5
86E
  8
1外形線
 10
718.73330026531676
 20
1113.2589708034479
 30
0.0
 11
708.73330026531664
 21
1113.2589708034479
 31
0.0
  0
ARC
  5
86F
  8
1外形線
 10
718.73330026531676
 20
1115.158970803448
 30
0.0
 40
1.8999999999999999
 50
270.0
 51
90.0
  0
ARC
  5
870
  8
1外形線
 10
808.73330026531664
 20
1115.158970803448
 30
0.0
 40
1.8999999999999999
 50
90.0
 51
270.0
  0
ARC
  5
871
  8
1外形線
 10
818.73330026531664
 20
1115.158970803448
 30
0.0
 40
1.8999999999999999
 50
270.0
 51
90.0
  0
LINE
  5
872
  8
1外形線
 10
908.73330026531664
 20
1117.0589708034479
 30
0.0
 11
918.73330026531664
 21
1117.0589708034479
 31
0.0
  0
LINE
  5
873
  8
1外形線
 10
918.73330026531664
 20
1113.2589708034479
 30
0.0
 11
908.73330026531664
 21
1113.2589708034479
 31
0.0
  0
ARC
  5
874
  8
1外形線
 10
918.73330026531664
 20
1115.158970803448
 30
0.0
 40
1.8999999999999999
 50
270.0
 51
90.0
  0
ARC
  5
875
  8
1外形線
 10
908.73330026531664
 20
1115.158970803448
 30
0.0
 40
1.8999999999999999
 50
90.0
 51
270.0
  0
LINE
  5
876
  8
1外形線
 10
1008.733300265316
 20
1117.0589708034479
 30
0.0
 11
1018.733300265316
 21
1117.0589708034479
 31
0.0
  0
LINE
  5
877
  8
1外形線
 10
1018.733300265316
 20
1113.2589708034479
 30
0.0
 11
1008.733300265316
 21
1113.2589708034479
 31
0.0
  0
ARC
  5
878
  8
1外形線
 10
1008.733300265316
 20
1115.158970803448
 30
0.0
 40
1.8999999999999999
 50
90.0
 51
270.0
  0
ARC
  5
879
  8
1外形線
 10
1018.733300265316
 20
1115.158970803448
 30
0.0
 40
1.8999999999999999
 50
270.0
 51
90.0
  0
ARC
  5
87A
  8
1外形線
 10
1118.7333002653161
 20
1115.158970803448
 30
0.0
 40
1.8999999999999999
 50
270.0
 51
90.0
  0
ARC
  5
87B
  8
1外形線
 10
1108.7333002653161
 20
1115.158970803448
 30
0.0
 40
1.8999999999999999
 50
90.0
 51
270.0
  0
LINE
  5
87C
  8
1外形線
 10
1108.7333002653161
 20
1117.0589708034479
 30
0.0
 11
1118.7333002653161
 21
1117.0589708034479
 31
0.0
  0
LINE
  5
87D
  8
1外形線
 10
1118.7333002653161
 20
1113.2589708034479
 30
0.0
 11
1108.7333002653161
 21
1113.2589708034479
 31
0.0
  0
LINE
  5
87E
  8
1外形線
 10
2323.7333002653158
 20
1294.158970803448
 30
0.0
 11
2323.7333002653149
 21
21.615977891510621
 31
0.0
  0
LINE
  5
87F
  8
1外形線
 10
2263.7333002653149
 20
607.15897080344837
 30
0.0
 11
2263.7333002653149
 21
677.15897080344837
 31
0.0
  0
ARC
  5
880
  8
1外形線
 10
1218.7333002653161
 20
111.6159778915105
 30
0.0
 40
1.8999999999999999
 50
270.0
 51
90.0
  0
ARC
  5
881
  8
1外形線
 10
1208.7333002653161
 20
111.6159778915105
 30
0.0
 40
1.8999999999999999
 50
90.0
 51
270.0
  0
LINE
  5
882
  8
1外形線
 10
1218.7333002653161
 20
109.71597789151051
 30
0.0
 11
1208.7333002653161
 21
109.71597789151051
 31
0.0
  0
LINE
  5
883
  8
1外形線
 10
1208.7333002653161
 20
113.5159778915104
 30
0.0
 11
1218.7333002653161
 21
113.5159778915104
 31
0.0
  0
LINE
  5
884
  8
1外形線
 10
1208.7333002653161
 20
153.51597789151049
 30
0.0
 11
1218.7333002653161
 21
153.51597789151049
 31
0.0
  0
LINE
  5
885
  8
1外形線
 10
1218.7333002653161
 20
149.71597789151051
 30
0.0
 11
1208.7333002653161
 21
149.71597789151051
 31
0.0
  0
ARC
  5
886
  8
1外形線
 10
1208.7333002653161
 20
151.61597789151051
 30
0.0
 40
1.8999999999999999
 50
90.0
 51
270.0
  0
ARC
  5
887
  8
1外形線
 10
1218.7333002653161
 20
151.61597789151051
 30
0.0
 40
1.8999999999999999
 50
270.0
 51
90.0
  0
ARC
  5
888
  8
1外形線
 10
1318.7333002653161
 20
111.6159778915105
 30
0.0
 40
1.8999999999999999
 50
270.0
 51
90.0
  0
ARC
  5
889
  8
1外形線
 10
1308.7333002653161
 20
111.6159778915105
 30
0.0
 40
1.8999999999999999
 50
90.0
 51
270.0
  0
LINE
  5
88A
  8
1外形線
 10
1308.7333002653161
 20
109.71597789151051
 30
0.0
 11
1318.7333002653161
 21
109.71597789151051
 31
0.0
  0
ARC
  5
88B
  8
1外形線
 10
1308.7333002653161
 20
151.61597789151051
 30
0.0
 40
1.8999999999999999
 50
90.0
 51
270.0
  0
LINE
  5
88C
  8
1外形線
 10
1318.7333002653161
 20
113.5159778915104
 30
0.0
 11
1308.7333002653161
 21
113.5159778915104
 31
0.0
  0
ARC
  5
88D
  8
1外形線
 10
1318.7333002653161
 20
151.61597789151051
 30
0.0
 40
1.8999999999999999
 50
270.0
 51
90.0
  0
LINE
  5
88E
  8
1外形線
 10
1318.7333002653161
 20
153.51597789151049
 30
0.0
 11
1308.7333002653161
 21
153.51597789151049
 31
0.0
  0
LINE
  5
88F
  8
1外形線
 10
1308.7333002653161
 20
149.71597789151051
 30
0.0
 11
1318.7333002653161
 21
149.71597789151051
 31
0.0
  0
LINE
  5
890
  8
1外形線
 10
1218.7333002653161
 20
189.7159778915107
 30
0.0
 11
1208.7333002653161
 21
189.7159778915107
 31
0.0
  0
LINE
  5
891
  8
1外形線
 10
1208.7333002653161
 20
193.51597789151069
 30
0.0
 11
1218.7333002653161
 21
193.51597789151069
 31
0.0
  0
ARC
  5
892
  8
1外形線
 10
1208.7333002653161
 20
191.61597789151071
 30
0.0
 40
1.8999999999999999
 50
90.0
 51
270.0
  0
ARC
  5
893
  8
1外形線
 10
1218.7333002653161
 20
191.61597789151071
 30
0.0
 40
1.8999999999999999
 50
270.0
 51
90.0
  0
ARC
  5
894
  8
1外形線
 10
1308.7333002653161
 20
191.61597789151071
 30
0.0
 40
1.8999999999999999
 50
90.0
 51
270.0
  0
ARC
  5
895
  8
1外形線
 10
1318.7333002653161
 20
191.61597789151071
 30
0.0
 40
1.8999999999999999
 50
270.0
 51
90.0
  0
LINE
  5
896
  8
1外形線
 10
1308.7333002653161
 20
189.7159778915107
 30
0.0
 11
1318.7333002653161
 21
189.7159778915107
 31
0.0
  0
LINE
  5
897
  8
1外形線
 10
1318.7333002653161
 20
193.51597789151069
 30
0.0
 11
1308.7333002653161
 21
193.51597789151069
 31
0.0
  0
ARC
  5
898
  8
1外形線
 10
1418.7333002653161
 20
111.6159778915105
 30
0.0
 40
1.8999999999999999
 50
270.0
 51
90.0
  0
ARC
  5
899
  8
1外形線
 10
1408.7333002653161
 20
111.6159778915105
 30
0.0
 40
1.8999999999999999
 50
90.0
 51
270.0
  0
LINE
  5
89A
  8
1外形線
 10
1408.7333002653161
 20
109.71597789151051
 30
0.0
 11
1418.7333002653161
 21
109.71597789151051
 31
0.0
  0
LINE
  5
89B
  8
1外形線
 10
1418.7333002653161
 20
113.5159778915104
 30
0.0
 11
1408.7333002653161
 21
113.5159778915104
 31
0.0
  0
ARC
  5
89C
  8
1外形線
 10
1418.7333002653161
 20
151.61597789151051
 30
0.0
 40
1.8999999999999999
 50
270.0
 51
90.0
  0
ARC
  5
89D
  8
1外形線
 10
1408.7333002653161
 20
151.61597789151051
 30
0.0
 40
1.8999999999999999
 50
90.0
 51
270.0
  0
LINE
  5
89E
  8
1外形線
 10
1418.7333002653161
 20
153.51597789151049
 30
0.0
 11
1408.7333002653161
 21
153.51597789151049
 31
0.0
  0
LINE
  5
89F
  8
1外形線
 10
1408.7333002653161
 20
149.71597789151051
 30
0.0
 11
1418.7333002653161
 21
149.71597789151051
 31
0.0
  0
ARC
  5
8A0
  8
1外形線
 10
1518.7333002653161
 20
111.6159778915105
 30
0.0
 40
1.8999999999999999
 50
270.0
 51
90.0
  0
ARC
  5
8A1
  8
1外形線
 10
1508.7333002653161
 20
111.6159778915105
 30
0.0
 40
1.8999999999999999
 50
90.0
 51
270.0
  0
LINE
  5
8A2
  8
1外形線
 10
1508.7333002653161
 20
109.71597789151051
 30
0.0
 11
1518.7333002653161
 21
109.71597789151051
 31
0.0
  0
LINE
  5
8A3
  8
1外形線
 10
1518.7333002653161
 20
113.5159778915104
 30
0.0
 11
1508.7333002653161
 21
113.5159778915104
 31
0.0
  0
LINE
  5
8A4
  8
1外形線
 10
1518.7333002653161
 20
153.51597789151049
 30
0.0
 11
1508.7333002653161
 21
153.51597789151049
 31
0.0
  0
LINE
  5
8A5
  8
1外形線
 10
1508.7333002653161
 20
149.71597789151051
 30
0.0
 11
1518.7333002653161
 21
149.71597789151051
 31
0.0
  0
ARC
  5
8A6
  8
1外形線
 10
1508.7333002653161
 20
151.61597789151051
 30
0.0
 40
1.8999999999999999
 50
90.0
 51
270.0
  0
ARC
  5
8A7
  8
1外形線
 10
1518.7333002653161
 20
151.61597789151051
 30
0.0
 40
1.8999999999999999
 50
270.0
 51
90.0
  0
ARC
  5
8A8
  8
1外形線
 10
1418.7333002653161
 20
191.61597789151071
 30
0.0
 40
1.8999999999999999
 50
270.0
 51
90.0
  0
ARC
  5
8A9
  8
1外形線
 10
1408.7333002653161
 20
191.61597789151071
 30
0.0
 40
1.8999999999999999
 50
90.0
 51
270.0
  0
LINE
  5
8AA
  8
1外形線
 10
1408.7333002653161
 20
189.7159778915107
 30
0.0
 11
1418.7333002653161
 21
189.7159778915107
 31
0.0
  0
LINE
  5
8AB
  8
1外形線
 10
1418.7333002653161
 20
193.51597789151069
 30
0.0
 11
1408.7333002653161
 21
193.51597789151069
 31
0.0
  0
LINE
  5
8AC
  8
1外形線
 10
1508.7333002653161
 20
189.7159778915107
 30
0.0
 11
1518.7333002653161
 21
189.7159778915107
 31
0.0
  0
LINE
  5
8AD
  8
1外形線
 10
1518.7333002653161
 20
193.51597789151069
 30
0.0
 11
1508.7333002653161
 21
193.51597789151069
 31
0.0
  0
ARC
  5
8AE
  8
1外形線
 10
1508.7333002653161
 20
191.61597789151071
 30
0.0
 40
1.8999999999999999
 50
90.0
 51
270.0
  0
ARC
  5
8AF
  8
1外形線
 10
1518.7333002653161
 20
191.61597789151071
 30
0.0
 40
1.8999999999999999
 50
270.0
 51
90.0
  0
LINE
  5
8B0
  8
1外形線
 10
1718.7333002653161
 20
113.5159778915104
 30
0.0
 11
1708.7333002653161
 21
113.5159778915104
 31
0.0
  0
LINE
  5
8B1
  8
1外形線
 10
1708.7333002653161
 20
109.71597789151051
 30
0.0
 11
1718.7333002653161
 21
109.71597789151051
 31
0.0
  0
LINE
  5
8B2
  8
1外形線
 10
1718.7333002653161
 20
153.51597789151049
 30
0.0
 11
1708.7333002653161
 21
153.51597789151049
 31
0.0
  0
LINE
  5
8B3
  8
1外形線
 10
1708.7333002653161
 20
149.71597789151051
 30
0.0
 11
1718.7333002653161
 21
149.71597789151051
 31
0.0
  0
LINE
  5
8B4
  8
1外形線
 10
1708.7333002653161
 20
189.7159778915107
 30
0.0
 11
1718.7333002653161
 21
189.7159778915107
 31
0.0
  0
LINE
  5
8B5
  8
1外形線
 10
1718.7333002653161
 20
193.51597789151069
 30
0.0
 11
1708.7333002653161
 21
193.51597789151069
 31
0.0
  0
ARC
  5
8B6
  8
1外形線
 10
1618.7333002653161
 20
111.6159778915105
 30
0.0
 40
1.8999999999999999
 50
270.0
 51
90.0
  0
ARC
  5
8B7
  8
1外形線
 10
1608.7333002653161
 20
111.6159778915105
 30
0.0
 40
1.8999999999999999
 50
90.0
 51
270.0
  0
LINE
  5
8B8
  8
1外形線
 10
1608.7333002653161
 20
109.71597789151051
 30
0.0
 11
1618.7333002653161
 21
109.71597789151051
 31
0.0
  0
LINE
  5
8B9
  8
1外形線
 10
1618.7333002653161
 20
113.5159778915104
 30
0.0
 11
1608.7333002653161
 21
113.5159778915104
 31
0.0
  0
ARC
  5
8BA
  8
1外形線
 10
1618.7333002653161
 20
151.61597789151051
 30
0.0
 40
1.8999999999999999
 50
270.0
 51
90.0
  0
LINE
  5
8BB
  8
1外形線
 10
1618.7333002653161
 20
153.51597789151049
 30
0.0
 11
1608.7333002653161
 21
153.51597789151049
 31
0.0
  0
LINE
  5
8BC
  8
1外形線
 10
1608.7333002653161
 20
149.71597789151051
 30
0.0
 11
1618.7333002653161
 21
149.71597789151051
 31
0.0
  0
ARC
  5
8BD
  8
1外形線
 10
1608.7333002653161
 20
151.61597789151051
 30
0.0
 40
1.8999999999999999
 50
90.0
 51
270.0
  0
ARC
  5
8BE
  8
1外形線
 10
1708.7333002653161
 20
111.6159778915105
 30
0.0
 40
1.8999999999999999
 50
90.0
 51
270.0
  0
ARC
  5
8BF
  8
1外形線
 10
1708.7333002653161
 20
151.61597789151051
 30
0.0
 40
1.8999999999999999
 50
90.0
 51
270.0
  0
LINE
  5
8C0
  8
1外形線
 10
1608.7333002653161
 20
189.7159778915107
 30
0.0
 11
1618.7333002653161
 21
189.7159778915107
 31
0.0
  0
LINE
  5
8C1
  8
1外形線
 10
1618.7333002653161
 20
193.51597789151069
 30
0.0
 11
1608.7333002653161
 21
193.51597789151069
 31
0.0
  0
ARC
  5
8C2
  8
1外形線
 10
1618.7333002653161
 20
191.61597789151071
 30
0.0
 40
1.8999999999999999
 50
270.0
 51
90.0
  0
ARC
  5
8C3
  8
1外形線
 10
1608.7333002653161
 20
191.61597789151071
 30
0.0
 40
1.8999999999999999
 50
90.0
 51
270.0
  0
ARC
  5
8C4
  8
1外形線
 10
1708.7333002653161
 20
191.61597789151071
 30
0.0
 40
1.8999999999999999
 50
90.0
 51
270.0
  0
ARC
  5
8C5
  8
1外形線
 10
1718.7333002653161
 20
111.6159778915105
 30
0.0
 40
1.8999999999999999
 50
270.0
 51
90.0
  0
ARC
  5
8C6
  8
1外形線
 10
1718.7333002653161
 20
151.61597789151051
 30
0.0
 40
1.8999999999999999
 50
270.0
 51
90.0
  0
ARC
  5
8C7
  8
1外形線
 10
1818.7333002653161
 20
111.6159778915105
 30
0.0
 40
1.8999999999999999
 50
270.0
 51
90.0
  0
ARC
  5
8C8
  8
1外形線
 10
1808.7333002653161
 20
111.6159778915105
 30
0.0
 40
1.8999999999999999
 50
90.0
 51
270.0
  0
LINE
  5
8C9
  8
1外形線
 10
1808.7333002653161
 20
109.71597789151051
 30
0.0
 11
1818.7333002653161
 21
109.71597789151051
 31
0.0
  0
LINE
  5
8CA
  8
1外形線
 10
1818.7333002653161
 20
113.5159778915104
 30
0.0
 11
1808.7333002653161
 21
113.5159778915104
 31
0.0
  0
ARC
  5
8CB
  8
1外形線
 10
1818.7333002653161
 20
151.61597789151051
 30
0.0
 40
1.8999999999999999
 50
270.0
 51
90.0
  0
ARC
  5
8CC
  8
1外形線
 10
1808.7333002653161
 20
151.61597789151051
 30
0.0
 40
1.8999999999999999
 50
90.0
 51
270.0
  0
LINE
  5
8CD
  8
1外形線
 10
1818.7333002653161
 20
153.51597789151049
 30
0.0
 11
1808.7333002653161
 21
153.51597789151049
 31
0.0
  0
LINE
  5
8CE
  8
1外形線
 10
1808.7333002653161
 20
149.71597789151051
 30
0.0
 11
1818.7333002653161
 21
149.71597789151051
 31
0.0
  0
ARC
  5
8CF
  8
1外形線
 10
1718.7333002653161
 20
191.61597789151071
 30
0.0
 40
1.8999999999999999
 50
270.0
 51
90.0
  0
ARC
  5
8D0
  8
1外形線
 10
1818.7333002653161
 20
191.61597789151071
 30
0.0
 40
1.8999999999999999
 50
270.0
 51
90.0
  0
ARC
  5
8D1
  8
1外形線
 10
1808.7333002653161
 20
191.61597789151071
 30
0.0
 40
1.8999999999999999
 50
90.0
 51
270.0
  0
LINE
  5
8D2
  8
1外形線
 10
1808.7333002653161
 20
189.7159778915107
 30
0.0
 11
1818.7333002653161
 21
189.7159778915107
 31
0.0
  0
LINE
  5
8D3
  8
1外形線
 10
1818.7333002653161
 20
193.51597789151069
 30
0.0
 11
1808.7333002653161
 21
193.51597789151069
 31
0.0
  0
LINE
  5
8D4
  8
1外形線
 10
1208.7333002653161
 20
483.51597789151037
 30
0.0
 11
1218.7333002653161
 21
483.51597789151037
 31
0.0
  0
LINE
  5
8D5
  8
1外形線
 10
1218.7333002653161
 20
479.71597789151048
 30
0.0
 11
1208.7333002653161
 21
479.71597789151048
 31
0.0
  0
ARC
  5
8D6
  8
1外形線
 10
1208.7333002653161
 20
481.61597789151051
 30
0.0
 40
1.8999999999999999
 50
90.0
 51
270.0
  0
ARC
  5
8D7
  8
1外形線
 10
1218.7333002653161
 20
481.61597789151051
 30
0.0
 40
1.8999999999999999
 50
270.0
 51
90.0
  0
LINE
  5
8D8
  8
1外形線
 10
1218.7333002653161
 20
519.71597789151053
 30
0.0
 11
1208.7333002653161
 21
519.71597789151053
 31
0.0
  0
LINE
  5
8D9
  8
1外形線
 10
1208.7333002653161
 20
523.51597789151049
 30
0.0
 11
1218.7333002653161
 21
523.51597789151049
 31
0.0
  0
ARC
  5
8DA
  8
1外形線
 10
1208.7333002653161
 20
521.61597789151051
 30
0.0
 40
1.8999999999999999
 50
90.0
 51
270.0
  0
ARC
  5
8DB
  8
1外形線
 10
1218.7333002653161
 20
521.61597789151051
 30
0.0
 40
1.8999999999999999
 50
270.0
 51
90.0
  0
ARC
  5
8DC
  8
1外形線
 10
1308.7333002653161
 20
481.61597789151051
 30
0.0
 40
1.8999999999999999
 50
90.0
 51
270.0
  0
ARC
  5
8DD
  8
1外形線
 10
1318.7333002653161
 20
481.61597789151051
 30
0.0
 40
1.8999999999999999
 50
270.0
 51
90.0
  0
LINE
  5
8DE
  8
1外形線
 10
1308.7333002653161
 20
479.71597789151048
 30
0.0
 11
1318.7333002653161
 21
479.71597789151048
 31
0.0
  0
LINE
  5
8DF
  8
1外形線
 10
1318.7333002653161
 20
483.51597789151037
 30
0.0
 11
1308.7333002653161
 21
483.51597789151037
 31
0.0
  0
ARC
  5
8E0
  8
1外形線
 10
1308.7333002653161
 20
521.61597789151051
 30
0.0
 40
1.8999999999999999
 50
90.0
 51
270.0
  0
ARC
  5
8E1
  8
1外形線
 10
1318.7333002653161
 20
521.61597789151051
 30
0.0
 40
1.8999999999999999
 50
270.0
 51
90.0
  0
LINE
  5
8E2
  8
1外形線
 10
1318.7333002653161
 20
523.51597789151049
 30
0.0
 11
1308.7333002653161
 21
523.51597789151049
 31
0.0
  0
LINE
  5
8E3
  8
1外形線
 10
1308.7333002653161
 20
519.71597789151053
 30
0.0
 11
1318.7333002653161
 21
519.71597789151053
 31
0.0
  0
ARC
  5
8E4
  8
1外形線
 10
1418.7333002653161
 20
481.61597789151051
 30
0.0
 40
1.8999999999999999
 50
270.0
 51
90.0
  0
ARC
  5
8E5
  8
1外形線
 10
1408.7333002653161
 20
481.61597789151051
 30
0.0
 40
1.8999999999999999
 50
90.0
 51
270.0
  0
LINE
  5
8E6
  8
1外形線
 10
1408.7333002653161
 20
479.71597789151048
 30
0.0
 11
1418.7333002653161
 21
479.71597789151048
 31
0.0
  0
LINE
  5
8E7
  8
1外形線
 10
1418.7333002653161
 20
483.51597789151037
 30
0.0
 11
1408.7333002653161
 21
483.51597789151037
 31
0.0
  0
ARC
  5
8E8
  8
1外形線
 10
1418.7333002653161
 20
521.61597789151051
 30
0.0
 40
1.8999999999999999
 50
270.0
 51
90.0
  0
ARC
  5
8E9
  8
1外形線
 10
1408.7333002653161
 20
521.61597789151051
 30
0.0
 40
1.8999999999999999
 50
90.0
 51
270.0
  0
LINE
  5
8EA
  8
1外形線
 10
1418.7333002653161
 20
523.51597789151049
 30
0.0
 11
1408.7333002653161
 21
523.51597789151049
 31
0.0
  0
LINE
  5
8EB
  8
1外形線
 10
1408.7333002653161
 20
519.71597789151053
 30
0.0
 11
1418.7333002653161
 21
519.71597789151053
 31
0.0
  0
LINE
  5
8EC
  8
1外形線
 10
1508.7333002653161
 20
479.71597789151048
 30
0.0
 11
1518.7333002653161
 21
479.71597789151048
 31
0.0
  0
LINE
  5
8ED
  8
1外形線
 10
1518.7333002653161
 20
483.51597789151037
 30
0.0
 11
1508.7333002653161
 21
483.51597789151037
 31
0.0
  0
ARC
  5
8EE
  8
1外形線
 10
1508.7333002653161
 20
481.61597789151051
 30
0.0
 40
1.8999999999999999
 50
90.0
 51
270.0
  0
ARC
  5
8EF
  8
1外形線
 10
1518.7333002653161
 20
481.61597789151051
 30
0.0
 40
1.8999999999999999
 50
270.0
 51
90.0
  0
LINE
  5
8F0
  8
1外形線
 10
1518.7333002653161
 20
523.51597789151049
 30
0.0
 11
1508.7333002653161
 21
523.51597789151049
 31
0.0
  0
LINE
  5
8F1
  8
1外形線
 10
1508.7333002653161
 20
519.71597789151053
 30
0.0
 11
1518.7333002653161
 21
519.71597789151053
 31
0.0
  0
ARC
  5
8F2
  8
1外形線
 10
1508.7333002653161
 20
521.61597789151051
 30
0.0
 40
1.8999999999999999
 50
90.0
 51
270.0
  0
ARC
  5
8F3
  8
1外形線
 10
1518.7333002653161
 20
521.61597789151051
 30
0.0
 40
1.8999999999999999
 50
270.0
 51
90.0
  0
LINE
  5
8F4
  8
1外形線
 10
1708.7333002653161
 20
479.71597789151048
 30
0.0
 11
1718.7333002653161
 21
479.71597789151048
 31
0.0
  0
LINE
  5
8F5
  8
1外形線
 10
1718.7333002653161
 20
483.51597789151037
 30
0.0
 11
1708.7333002653161
 21
483.51597789151037
 31
0.0
  0
LINE
  5
8F6
  8
1外形線
 10
1718.7333002653161
 20
523.51597789151049
 30
0.0
 11
1708.7333002653161
 21
523.51597789151049
 31
0.0
  0
LINE
  5
8F7
  8
1外形線
 10
1708.7333002653161
 20
519.71597789151053
 30
0.0
 11
1718.7333002653161
 21
519.71597789151053
 31
0.0
  0
LINE
  5
8F8
  8
1外形線
 10
1608.7333002653161
 20
479.71597789151048
 30
0.0
 11
1618.7333002653161
 21
479.71597789151048
 31
0.0
  0
LINE
  5
8F9
  8
1外形線
 10
1618.7333002653161
 20
483.51597789151037
 30
0.0
 11
1608.7333002653161
 21
483.51597789151037
 31
0.0
  0
ARC
  5
8FA
  8
1外形線
 10
1618.7333002653161
 20
481.61597789151051
 30
0.0
 40
1.8999999999999999
 50
270.0
 51
90.0
  0
ARC
  5
8FB
  8
1外形線
 10
1608.7333002653161
 20
481.61597789151051
 30
0.0
 40
1.8999999999999999
 50
90.0
 51
270.0
  0
ARC
  5
8FC
  8
1外形線
 10
1618.7333002653161
 20
521.61597789151051
 30
0.0
 40
1.8999999999999999
 50
270.0
 51
90.0
  0
LINE
  5
8FD
  8
1外形線
 10
1618.7333002653161
 20
523.51597789151049
 30
0.0
 11
1608.7333002653161
 21
523.51597789151049
 31
0.0
  0
LINE
  5
8FE
  8
1外形線
 10
1608.7333002653161
 20
519.71597789151053
 30
0.0
 11
1618.7333002653161
 21
519.71597789151053
 31
0.0
  0
ARC
  5
8FF
  8
1外形線
 10
1608.7333002653161
 20
521.61597789151051
 30
0.0
 40
1.8999999999999999
 50
90.0
 51
270.0
  0
ARC
  5
900
  8
1外形線
 10
1708.7333002653161
 20
481.61597789151051
 30
0.0
 40
1.8999999999999999
 50
90.0
 51
270.0
  0
ARC
  5
901
  8
1外形線
 10
1708.7333002653161
 20
521.61597789151051
 30
0.0
 40
1.8999999999999999
 50
90.0
 51
270.0
  0
ARC
  5
902
  8
1外形線
 10
1718.7333002653161
 20
481.61597789151051
 30
0.0
 40
1.8999999999999999
 50
270.0
 51
90.0
  0
ARC
  5
903
  8
1外形線
 10
1718.7333002653161
 20
521.61597789151051
 30
0.0
 40
1.8999999999999999
 50
270.0
 51
90.0
  0
ARC
  5
904
  8
1外形線
 10
1818.7333002653161
 20
481.61597789151051
 30
0.0
 40
1.8999999999999999
 50
270.0
 51
90.0
  0
ARC
  5
905
  8
1外形線
 10
1808.7333002653161
 20
481.61597789151051
 30
0.0
 40
1.8999999999999999
 50
90.0
 51
270.0
  0
LINE
  5
906
  8
1外形線
 10
1808.7333002653161
 20
479.71597789151048
 30
0.0
 11
1818.7333002653161
 21
479.71597789151048
 31
0.0
  0
LINE
  5
907
  8
1外形線
 10
1818.7333002653161
 20
483.51597789151037
 30
0.0
 11
1808.7333002653161
 21
483.51597789151037
 31
0.0
  0
ARC
  5
908
  8
1外形線
 10
1818.7333002653161
 20
521.61597789151051
 30
0.0
 40
1.8999999999999999
 50
270.0
 51
90.0
  0
ARC
  5
909
  8
1外形線
 10
1808.7333002653161
 20
521.61597789151051
 30
0.0
 40
1.8999999999999999
 50
90.0
 51
270.0
  0
LINE
  5
90A
  8
1外形線
 10
1818.7333002653161
 20
523.51597789151049
 30
0.0
 11
1808.7333002653161
 21
523.51597789151049
 31
0.0
  0
LINE
  5
90B
  8
1外形線
 10
1808.7333002653161
 20
519.71597789151053
 30
0.0
 11
1818.7333002653161
 21
519.71597789151053
 31
0.0
  0
LINE
  5
90C
  8
1外形線
 10
2263.7333002653149
 20
251.61597789151051
 30
0.0
 11
2263.7333002653149
 21
331.61597789151051
 31
0.0
  0
ARC
  5
90D
  8
1外形線
 10
1908.7333002653161
 20
111.6159778915105
 30
0.0
 40
1.8999999999999999
 50
90.0
 51
270.0
  0
ARC
  5
90E
  8
1外形線
 10
1918.7333002653161
 20
111.6159778915105
 30
0.0
 40
1.8999999999999999
 50
270.0
 51
90.0
  0
LINE
  5
90F
  8
1外形線
 10
1908.7333002653161
 20
109.71597789151051
 30
0.0
 11
1918.7333002653161
 21
109.71597789151051
 31
0.0
  0
LINE
  5
910
  8
1外形線
 10
1918.7333002653161
 20
113.5159778915104
 30
0.0
 11
1908.7333002653161
 21
113.5159778915104
 31
0.0
  0
LINE
  5
911
  8
1外形線
 10
1918.7333002653161
 20
153.51597789151049
 30
0.0
 11
1908.7333002653161
 21
153.51597789151049
 31
0.0
  0
LINE
  5
912
  8
1外形線
 10
1908.7333002653161
 20
149.71597789151051
 30
0.0
 11
1918.7333002653161
 21
149.71597789151051
 31
0.0
  0
ARC
  5
913
  8
1外形線
 10
1908.7333002653161
 20
151.61597789151051
 30
0.0
 40
1.8999999999999999
 50
90.0
 51
270.0
  0
ARC
  5
914
  8
1外形線
 10
1918.7333002653161
 20
151.61597789151051
 30
0.0
 40
1.8999999999999999
 50
270.0
 51
90.0
  0
ARC
  5
915
  8
1外形線
 10
2018.7333002653161
 20
111.6159778915105
 30
0.0
 40
1.8999999999999999
 50
270.0
 51
90.0
  0
ARC
  5
916
  8
1外形線
 10
2008.7333002653161
 20
111.6159778915105
 30
0.0
 40
1.8999999999999999
 50
90.0
 51
270.0
  0
LINE
  5
917
  8
1外形線
 10
2008.7333002653161
 20
109.71597789151051
 30
0.0
 11
2018.7333002653161
 21
109.71597789151051
 31
0.0
  0
LINE
  5
918
  8
1外形線
 10
2018.7333002653161
 20
113.5159778915104
 30
0.0
 11
2008.7333002653161
 21
113.5159778915104
 31
0.0
  0
ARC
  5
919
  8
1外形線
 10
2018.7333002653161
 20
151.61597789151051
 30
0.0
 40
1.8999999999999999
 50
270.0
 51
90.0
  0
LINE
  5
91A
  8
1外形線
 10
2018.7333002653161
 20
153.51597789151049
 30
0.0
 11
2008.7333002653161
 21
153.51597789151049
 31
0.0
  0
LINE
  5
91B
  8
1外形線
 10
2008.7333002653161
 20
149.71597789151051
 30
0.0
 11
2018.7333002653161
 21
149.71597789151051
 31
0.0
  0
ARC
  5
91C
  8
1外形線
 10
2008.7333002653161
 20
151.61597789151051
 30
0.0
 40
1.8999999999999999
 50
90.0
 51
270.0
  0
LINE
  5
91D
  8
1外形線
 10
1908.7333002653161
 20
189.7159778915107
 30
0.0
 11
1918.7333002653161
 21
189.7159778915107
 31
0.0
  0
LINE
  5
91E
  8
1外形線
 10
1918.7333002653161
 20
193.51597789151069
 30
0.0
 11
1908.7333002653161
 21
193.51597789151069
 31
0.0
  0
ARC
  5
91F
  8
1外形線
 10
1908.7333002653161
 20
191.61597789151071
 30
0.0
 40
1.8999999999999999
 50
90.0
 51
270.0
  0
ARC
  5
920
  8
1外形線
 10
1918.7333002653161
 20
191.61597789151071
 30
0.0
 40
1.8999999999999999
 50
270.0
 51
90.0
  0
LINE
  5
921
  8
1外形線
 10
2008.7333002653161
 20
189.7159778915107
 30
0.0
 11
2018.7333002653161
 21
189.7159778915107
 31
0.0
  0
LINE
  5
922
  8
1外形線
 10
2018.7333002653161
 20
193.51597789151069
 30
0.0
 11
2008.7333002653161
 21
193.51597789151069
 31
0.0
  0
ARC
  5
923
  8
1外形線
 10
2018.7333002653161
 20
191.61597789151071
 30
0.0
 40
1.8999999999999999
 50
270.0
 51
90.0
  0
ARC
  5
924
  8
1外形線
 10
2008.7333002653161
 20
191.61597789151071
 30
0.0
 40
1.8999999999999999
 50
90.0
 51
270.0
  0
ARC
  5
925
  8
1外形線
 10
2118.7333002653158
 20
111.6159778915105
 30
0.0
 40
1.8999999999999999
 50
270.0
 51
90.0
  0
ARC
  5
926
  8
1外形線
 10
2108.7333002653172
 20
111.6159778915105
 30
0.0
 40
1.8999999999999999
 50
90.0
 51
270.0
  0
LINE
  5
927
  8
1外形線
 10
2108.7333002653172
 20
109.71597789151051
 30
0.0
 11
2118.7333002653158
 21
109.71597789151051
 31
0.0
  0
LINE
  5
928
  8
1外形線
 10
2118.7333002653158
 20
113.5159778915104
 30
0.0
 11
2108.7333002653172
 21
113.5159778915104
 31
0.0
  0
LINE
  5
929
  8
1外形線
 10
2108.7333002653172
 20
149.71597789151051
 30
0.0
 11
2118.7333002653158
 21
149.71597789151051
 31
0.0
  0
LINE
  5
92A
  8
1外形線
 10
2118.7333002653158
 20
153.51597789151049
 30
0.0
 11
2108.7333002653172
 21
153.51597789151049
 31
0.0
  0
ARC
  5
92B
  8
1外形線
 10
2108.7333002653172
 20
151.61597789151051
 30
0.0
 40
1.8999999999999999
 50
90.0
 51
270.0
  0
ARC
  5
92C
  8
1外形線
 10
2118.7333002653158
 20
151.61597789151051
 30
0.0
 40
1.8999999999999999
 50
270.0
 51
90.0
  0
ARC
  5
92D
  8
1外形線
 10
2218.7333002653158
 20
111.6159778915105
 30
0.0
 40
1.8999999999999999
 50
270.0
 51
90.0
  0
ARC
  5
92E
  8
1外形線
 10
2208.7333002653158
 20
111.6159778915105
 30
0.0
 40
1.8999999999999999
 50
90.0
 51
270.0
  0
LINE
  5
92F
  8
1外形線
 10
2208.7333002653158
 20
109.71597789151051
 30
0.0
 11
2218.7333002653158
 21
109.71597789151051
 31
0.0
  0
ARC
  5
930
  8
1外形線
 10
2208.7333002653158
 20
151.61597789151051
 30
0.0
 40
1.8999999999999999
 50
90.0
 51
270.0
  0
LINE
  5
931
  8
1外形線
 10
2218.7333002653158
 20
113.5159778915104
 30
0.0
 11
2208.7333002653158
 21
113.5159778915104
 31
0.0
  0
ARC
  5
932
  8
1外形線
 10
2218.7333002653158
 20
151.61597789151051
 30
0.0
 40
1.8999999999999999
 50
270.0
 51
90.0
  0
LINE
  5
933
  8
1外形線
 10
2218.7333002653158
 20
153.51597789151049
 30
0.0
 11
2208.7333002653158
 21
153.51597789151049
 31
0.0
  0
LINE
  5
934
  8
1外形線
 10
2208.7333002653158
 20
149.71597789151051
 30
0.0
 11
2218.7333002653158
 21
149.71597789151051
 31
0.0
  0
LINE
  5
935
  8
1外形線
 10
2118.7333002653158
 20
193.51597789151069
 30
0.0
 11
2108.7333002653172
 21
193.51597789151069
 31
0.0
  0
LINE
  5
936
  8
1外形線
 10
2108.7333002653172
 20
189.7159778915107
 30
0.0
 11
2118.7333002653158
 21
189.7159778915107
 31
0.0
  0
ARC
  5
937
  8
1外形線
 10
2108.7333002653172
 20
191.61597789151071
 30
0.0
 40
1.8999999999999999
 50
90.0
 51
270.0
  0
ARC
  5
938
  8
1外形線
 10
2118.7333002653158
 20
191.61597789151071
 30
0.0
 40
1.8999999999999999
 50
270.0
 51
90.0
  0
ARC
  5
939
  8
1外形線
 10
2208.7333002653158
 20
191.61597789151071
 30
0.0
 40
1.8999999999999999
 50
90.0
 51
270.0
  0
ARC
  5
93A
  8
1外形線
 10
2218.7333002653158
 20
191.61597789151071
 30
0.0
 40
1.8999999999999999
 50
270.0
 51
90.0
  0
LINE
  5
93B
  8
1外形線
 10
2208.7333002653158
 20
189.7159778915107
 30
0.0
 11
2218.7333002653158
 21
189.7159778915107
 31
0.0
  0
LINE
  5
93C
  8
1外形線
 10
2218.7333002653158
 20
193.51597789151069
 30
0.0
 11
2208.7333002653158
 21
193.51597789151069
 31
0.0
  0
LINE
  5
93D
  8
1外形線
 10
2263.7333002653149
 20
221.61597789151051
 30
0.0
 11
2263.7333002653149
 21
81.615977891510497
 31
0.0
  0
LINE
  5
93E
  8
1外形線
 10
1908.7333002653161
 20
479.71597789151048
 30
0.0
 11
1918.7333002653161
 21
479.71597789151048
 31
0.0
  0
LINE
  5
93F
  8
1外形線
 10
1918.7333002653161
 20
483.51597789151037
 30
0.0
 11
1908.7333002653161
 21
483.51597789151037
 31
0.0
  0
ARC
  5
940
  8
1外形線
 10
1908.7333002653161
 20
481.61597789151051
 30
0.0
 40
1.8999999999999999
 50
90.0
 51
270.0
  0
ARC
  5
941
  8
1外形線
 10
1918.7333002653161
 20
481.61597789151051
 30
0.0
 40
1.8999999999999999
 50
270.0
 51
90.0
  0
LINE
  5
942
  8
1外形線
 10
1918.7333002653161
 20
523.51597789151049
 30
0.0
 11
1908.7333002653161
 21
523.51597789151049
 31
0.0
  0
LINE
  5
943
  8
1外形線
 10
1908.7333002653161
 20
519.71597789151053
 30
0.0
 11
1918.7333002653161
 21
519.71597789151053
 31
0.0
  0
ARC
  5
944
  8
1外形線
 10
1908.7333002653161
 20
521.61597789151051
 30
0.0
 40
1.8999999999999999
 50
90.0
 51
270.0
  0
ARC
  5
945
  8
1外形線
 10
1918.7333002653161
 20
521.61597789151051
 30
0.0
 40
1.8999999999999999
 50
270.0
 51
90.0
  0
LINE
  5
946
  8
1外形線
 10
2008.7333002653161
 20
479.71597789151048
 30
0.0
 11
2018.7333002653161
 21
479.71597789151048
 31
0.0
  0
LINE
  5
947
  8
1外形線
 10
2018.7333002653161
 20
483.51597789151037
 30
0.0
 11
2008.7333002653161
 21
483.51597789151037
 31
0.0
  0
ARC
  5
948
  8
1外形線
 10
2018.7333002653161
 20
481.61597789151051
 30
0.0
 40
1.8999999999999999
 50
270.0
 51
90.0
  0
ARC
  5
949
  8
1外形線
 10
2008.7333002653161
 20
481.61597789151051
 30
0.0
 40
1.8999999999999999
 50
90.0
 51
270.0
  0
ARC
  5
94A
  8
1外形線
 10
2018.7333002653161
 20
521.61597789151051
 30
0.0
 40
1.8999999999999999
 50
270.0
 51
90.0
  0
LINE
  5
94B
  8
1外形線
 10
2018.7333002653161
 20
523.51597789151049
 30
0.0
 11
2008.7333002653161
 21
523.51597789151049
 31
0.0
  0
LINE
  5
94C
  8
1外形線
 10
2008.7333002653161
 20
519.71597789151053
 30
0.0
 11
2018.7333002653161
 21
519.71597789151053
 31
0.0
  0
ARC
  5
94D
  8
1外形線
 10
2008.7333002653161
 20
521.61597789151051
 30
0.0
 40
1.8999999999999999
 50
90.0
 51
270.0
  0
LINE
  5
94E
  8
1外形線
 10
2118.7333002653158
 20
483.51597789151037
 30
0.0
 11
2108.7333002653172
 21
483.51597789151037
 31
0.0
  0
LINE
  5
94F
  8
1外形線
 10
2108.7333002653172
 20
479.71597789151048
 30
0.0
 11
2118.7333002653158
 21
479.71597789151048
 31
0.0
  0
ARC
  5
950
  8
1外形線
 10
2108.7333002653172
 20
481.61597789151051
 30
0.0
 40
1.8999999999999999
 50
90.0
 51
270.0
  0
ARC
  5
951
  8
1外形線
 10
2118.7333002653158
 20
481.61597789151051
 30
0.0
 40
1.8999999999999999
 50
270.0
 51
90.0
  0
LINE
  5
952
  8
1外形線
 10
2108.7333002653172
 20
519.71597789151053
 30
0.0
 11
2118.7333002653158
 21
519.71597789151053
 31
0.0
  0
LINE
  5
953
  8
1外形線
 10
2118.7333002653158
 20
523.51597789151049
 30
0.0
 11
2108.7333002653172
 21
523.51597789151049
 31
0.0
  0
ARC
  5
954
  8
1外形線
 10
2108.7333002653172
 20
521.61597789151051
 30
0.0
 40
1.8999999999999999
 50
90.0
 51
270.0
  0
ARC
  5
955
  8
1外形線
 10
2118.7333002653158
 20
521.61597789151051
 30
0.0
 40
1.8999999999999999
 50
270.0
 51
90.0
  0
ARC
  5
956
  8
1外形線
 10
2208.7333002653158
 20
481.61597789151051
 30
0.0
 40
1.8999999999999999
 50
90.0
 51
270.0
  0
ARC
  5
957
  8
1外形線
 10
2218.7333002653158
 20
481.61597789151051
 30
0.0
 40
1.8999999999999999
 50
270.0
 51
90.0
  0
LINE
  5
958
  8
1外形線
 10
2208.7333002653158
 20
479.71597789151048
 30
0.0
 11
2218.7333002653158
 21
479.71597789151048
 31
0.0
  0
LINE
  5
959
  8
1外形線
 10
2218.7333002653158
 20
483.51597789151037
 30
0.0
 11
2208.7333002653158
 21
483.51597789151037
 31
0.0
  0
ARC
  5
95A
  8
1外形線
 10
2208.7333002653158
 20
521.61597789151051
 30
0.0
 40
1.8999999999999999
 50
90.0
 51
270.0
  0
ARC
  5
95B
  8
1外形線
 10
2218.7333002653158
 20
521.61597789151051
 30
0.0
 40
1.8999999999999999
 50
270.0
 51
90.0
  0
LINE
  5
95C
  8
1外形線
 10
2218.7333002653158
 20
523.51597789151049
 30
0.0
 11
2208.7333002653158
 21
523.51597789151049
 31
0.0
  0
LINE
  5
95D
  8
1外形線
 10
2208.7333002653158
 20
519.71597789151053
 30
0.0
 11
2218.7333002653158
 21
519.71597789151053
 31
0.0
  0
LINE
  5
95E
  8
1外形線
 10
2263.7333002653149
 20
551.6159778915104
 30
0.0
 11
2263.7333002653149
 21
451.61597789151051
 31
0.0
  0
LINE
  5
95F
  8
1外形線
 10
1218.7333002653161
 20
832.75897080344839
 30
0.0
 11
1208.7333002653161
 21
832.75897080344839
 31
0.0
  0
LINE
  5
960
  8
1外形線
 10
1208.7333002653161
 20
836.55897080344835
 30
0.0
 11
1218.7333002653161
 21
836.55897080344835
 31
0.0
  0
ARC
  5
961
  8
1外形線
 10
1208.7333002653161
 20
834.65897080344826
 30
0.0
 40
1.8999999999999999
 50
90.0
 51
270.0
  0
ARC
  5
962
  8
1外形線
 10
1218.7333002653161
 20
834.65897080344826
 30
0.0
 40
1.8999999999999999
 50
270.0
 51
90.0
  0
ARC
  5
963
  8
1外形線
 10
1308.7333002653161
 20
834.65897080344826
 30
0.0
 40
1.8999999999999999
 50
90.0
 51
270.0
  0
ARC
  5
964
  8
1外形線
 10
1318.7333002653161
 20
834.65897080344826
 30
0.0
 40
1.8999999999999999
 50
270.0
 51
90.0
  0
LINE
  5
965
  8
1外形線
 10
1318.7333002653161
 20
836.55897080344835
 30
0.0
 11
1308.7333002653161
 21
836.55897080344835
 31
0.0
  0
LINE
  5
966
  8
1外形線
 10
1308.7333002653161
 20
832.75897080344839
 30
0.0
 11
1318.7333002653161
 21
832.75897080344839
 31
0.0
  0
ARC
  5
967
  8
1外形線
 10
1408.7333002653161
 20
834.65897080344826
 30
0.0
 40
1.8999999999999999
 50
90.0
 51
270.0
  0
ARC
  5
968
  8
1外形線
 10
1418.7333002653161
 20
834.65897080344826
 30
0.0
 40
1.8999999999999999
 50
270.0
 51
90.0
  0
LINE
  5
969
  8
1外形線
 10
1418.7333002653161
 20
836.55897080344835
 30
0.0
 11
1408.7333002653161
 21
836.55897080344835
 31
0.0
  0
LINE
  5
96A
  8
1外形線
 10
1408.7333002653161
 20
832.75897080344839
 30
0.0
 11
1418.7333002653161
 21
832.75897080344839
 31
0.0
  0
LINE
  5
96B
  8
1外形線
 10
1518.7333002653161
 20
836.55897080344835
 30
0.0
 11
1508.7333002653161
 21
836.55897080344835
 31
0.0
  0
LINE
  5
96C
  8
1外形線
 10
1508.7333002653161
 20
832.75897080344839
 30
0.0
 11
1518.7333002653161
 21
832.75897080344839
 31
0.0
  0
ARC
  5
96D
  8
1外形線
 10
1508.7333002653161
 20
834.65897080344826
 30
0.0
 40
1.8999999999999999
 50
90.0
 51
270.0
  0
ARC
  5
96E
  8
1外形線
 10
1518.7333002653161
 20
834.65897080344826
 30
0.0
 40
1.8999999999999999
 50
270.0
 51
90.0
  0
LINE
  5
96F
  8
1外形線
 10
1718.7333002653161
 20
836.55897080344835
 30
0.0
 11
1708.7333002653161
 21
836.55897080344835
 31
0.0
  0
LINE
  5
970
  8
1外形線
 10
1708.7333002653161
 20
832.75897080344839
 30
0.0
 11
1718.7333002653161
 21
832.75897080344839
 31
0.0
  0
LINE
  5
971
  8
1外形線
 10
1618.733300265317
 20
836.55897080344835
 30
0.0
 11
1608.7333002653161
 21
836.55897080344835
 31
0.0
  0
LINE
  5
972
  8
1外形線
 10
1608.7333002653161
 20
832.75897080344839
 30
0.0
 11
1618.733300265317
 21
832.75897080344839
 31
0.0
  0
ARC
  5
973
  8
1外形線
 10
1608.7333002653161
 20
834.65897080344826
 30
0.0
 40
1.8999999999999999
 50
90.0
 51
270.0
  0
ARC
  5
974
  8
1外形線
 10
1618.733300265317
 20
834.65897080344826
 30
0.0
 40
1.8999999999999999
 50
270.0
 51
90.0
  0
ARC
  5
975
  8
1外形線
 10
1708.7333002653161
 20
834.65897080344826
 30
0.0
 40
1.8999999999999999
 50
90.0
 51
270.0
  0
ARC
  5
976
  8
1外形線
 10
1718.7333002653161
 20
834.65897080344826
 30
0.0
 40
1.8999999999999999
 50
270.0
 51
90.0
  0
ARC
  5
977
  8
1外形線
 10
1818.7333002653161
 20
834.65897080344826
 30
0.0
 40
1.8999999999999999
 50
270.0
 51
90.0
  0
LINE
  5
978
  8
1外形線
 10
1818.7333002653161
 20
836.55897080344835
 30
0.0
 11
1808.7333002653161
 21
836.55897080344835
 31
0.0
  0
LINE
  5
979
  8
1外形線
 10
1808.7333002653161
 20
832.75897080344839
 30
0.0
 11
1818.7333002653161
 21
832.75897080344839
 31
0.0
  0
ARC
  5
97A
  8
1外形線
 10
1808.7333002653161
 20
834.65897080344826
 30
0.0
 40
1.8999999999999999
 50
90.0
 51
270.0
  0
LINE
  5
97B
  8
1外形線
 10
1208.7333002653161
 20
1117.0589708034479
 30
0.0
 11
1218.7333002653161
 21
1117.0589708034479
 31
0.0
  0
LINE
  5
97C
  8
1外形線
 10
1218.7333002653161
 20
1113.2589708034479
 30
0.0
 11
1208.7333002653161
 21
1113.2589708034479
 31
0.0
  0
ARC
  5
97D
  8
1外形線
 10
1208.7333002653161
 20
1115.158970803448
 30
0.0
 40
1.8999999999999999
 50
90.0
 51
270.0
  0
ARC
  5
97E
  8
1外形線
 10
1218.7333002653161
 20
1115.158970803448
 30
0.0
 40
1.8999999999999999
 50
270.0
 51
90.0
  0
ARC
  5
97F
  8
1外形線
 10
1308.7333002653161
 20
1115.158970803448
 30
0.0
 40
1.8999999999999999
 50
90.0
 51
270.0
  0
LINE
  5
980
  8
1外形線
 10
1308.7333002653161
 20
1113.2589708034479
 30
0.0
 11
1318.7333002653161
 21
1113.2589708034479
 31
0.0
  0
LINE
  5
981
  8
1外形線
 10
1318.7333002653161
 20
1117.0589708034479
 30
0.0
 11
1308.7333002653161
 21
1117.0589708034479
 31
0.0
  0
ARC
  5
982
  8
1外形線
 10
1318.7333002653161
 20
1115.158970803448
 30
0.0
 40
1.8999999999999999
 50
270.0
 51
90.0
  0
LINE
  5
983
  8
1外形線
 10
1408.7333002653161
 20
1113.2589708034479
 30
0.0
 11
1418.7333002653161
 21
1113.2589708034479
 31
0.0
  0
LINE
  5
984
  8
1外形線
 10
1418.7333002653161
 20
1117.0589708034479
 30
0.0
 11
1408.7333002653161
 21
1117.0589708034479
 31
0.0
  0
ARC
  5
985
  8
1外形線
 10
1418.7333002653161
 20
1115.158970803448
 30
0.0
 40
1.8999999999999999
 50
270.0
 51
90.0
  0
ARC
  5
986
  8
1外形線
 10
1408.7333002653161
 20
1115.158970803448
 30
0.0
 40
1.8999999999999999
 50
90.0
 51
270.0
  0
LINE
  5
987
  8
1外形線
 10
1508.7333002653161
 20
1113.2589708034479
 30
0.0
 11
1518.7333002653161
 21
1113.2589708034479
 31
0.0
  0
LINE
  5
988
  8
1外形線
 10
1518.7333002653161
 20
1117.0589708034479
 30
0.0
 11
1508.7333002653161
 21
1117.0589708034479
 31
0.0
  0
ARC
  5
989
  8
1外形線
 10
1508.7333002653161
 20
1115.158970803448
 30
0.0
 40
1.8999999999999999
 50
90.0
 51
270.0
  0
ARC
  5
98A
  8
1外形線
 10
1518.7333002653161
 20
1115.158970803448
 30
0.0
 40
1.8999999999999999
 50
270.0
 51
90.0
  0
LINE
  5
98B
  8
1外形線
 10
1708.7333002653161
 20
1113.2589708034479
 30
0.0
 11
1718.7333002653161
 21
1113.2589708034479
 31
0.0
  0
LINE
  5
98C
  8
1外形線
 10
1718.7333002653161
 20
1117.0589708034479
 30
0.0
 11
1708.7333002653161
 21
1117.0589708034479
 31
0.0
  0
ARC
  5
98D
  8
1外形線
 10
1618.733300265317
 20
1115.158970803448
 30
0.0
 40
1.8999999999999999
 50
270.0
 51
90.0
  0
ARC
  5
98E
  8
1外形線
 10
1608.7333002653161
 20
1115.158970803448
 30
0.0
 40
1.8999999999999999
 50
90.0
 51
270.0
  0
LINE
  5
98F
  8
1外形線
 10
1608.7333002653161
 20
1113.2589708034479
 30
0.0
 11
1618.733300265317
 21
1113.2589708034479
 31
0.0
  0
LINE
  5
990
  8
1外形線
 10
1618.733300265317
 20
1117.0589708034479
 30
0.0
 11
1608.7333002653161
 21
1117.0589708034479
 31
0.0
  0
ARC
  5
991
  8
1外形線
 10
1708.7333002653161
 20
1115.158970803448
 30
0.0
 40
1.8999999999999999
 50
90.0
 51
270.0
  0
ARC
  5
992
  8
1外形線
 10
1718.7333002653161
 20
1115.158970803448
 30
0.0
 40
1.8999999999999999
 50
270.0
 51
90.0
  0
ARC
  5
993
  8
1外形線
 10
1808.7333002653161
 20
1115.158970803448
 30
0.0
 40
1.8999999999999999
 50
90.0
 51
270.0
  0
LINE
  5
994
  8
1外形線
 10
1808.7333002653161
 20
1113.2589708034479
 30
0.0
 11
1818.7333002653161
 21
1113.2589708034479
 31
0.0
  0
LINE
  5
995
  8
1外形線
 10
1818.7333002653161
 20
1117.0589708034479
 30
0.0
 11
1808.7333002653161
 21
1117.0589708034479
 31
0.0
  0
ARC
  5
996
  8
1外形線
 10
1818.7333002653161
 20
1115.158970803448
 30
0.0
 40
1.8999999999999999
 50
270.0
 51
90.0
  0
LINE
  5
997
  8
1外形線
 10
1918.733300265317
 20
836.55897080344835
 30
0.0
 11
1908.7333002653161
 21
836.55897080344835
 31
0.0
  0
LINE
  5
998
  8
1外形線
 10
1908.7333002653161
 20
832.75897080344839
 30
0.0
 11
1918.733300265317
 21
832.75897080344839
 31
0.0
  0
ARC
  5
999
  8
1外形線
 10
1908.7333002653161
 20
834.65897080344826
 30
0.0
 40
1.8999999999999999
 50
90.0
 51
270.0
  0
ARC
  5
99A
  8
1外形線
 10
1918.733300265317
 20
834.65897080344826
 30
0.0
 40
1.8999999999999999
 50
270.0
 51
90.0
  0
ARC
  5
99B
  8
1外形線
 10
2008.7333002653161
 20
834.65897080344826
 30
0.0
 40
1.8999999999999999
 50
90.0
 51
270.0
  0
ARC
  5
99C
  8
1外形線
 10
2018.733300265317
 20
834.65897080344826
 30
0.0
 40
1.8999999999999999
 50
270.0
 51
90.0
  0
LINE
  5
99D
  8
1外形線
 10
2018.733300265317
 20
836.55897080344835
 30
0.0
 11
2008.7333002653161
 21
836.55897080344835
 31
0.0
  0
LINE
  5
99E
  8
1外形線
 10
2008.7333002653161
 20
832.75897080344839
 30
0.0
 11
2018.733300265317
 21
832.75897080344839
 31
0.0
  0
LINE
  5
99F
  8
1外形線
 10
2108.7333002653172
 20
832.75897080344839
 30
0.0
 11
2118.7333002653158
 21
832.75897080344839
 31
0.0
  0
LINE
  5
9A0
  8
1外形線
 10
2118.7333002653158
 20
836.55897080344835
 30
0.0
 11
2108.7333002653172
 21
836.55897080344835
 31
0.0
  0
ARC
  5
9A1
  8
1外形線
 10
2108.7333002653172
 20
834.65897080344826
 30
0.0
 40
1.8999999999999999
 50
90.0
 51
270.0
  0
ARC
  5
9A2
  8
1外形線
 10
2118.7333002653158
 20
834.65897080344826
 30
0.0
 40
1.8999999999999999
 50
270.0
 51
90.0
  0
ARC
  5
9A3
  8
1外形線
 10
2208.7333002653158
 20
834.65897080344826
 30
0.0
 40
1.8999999999999999
 50
90.0
 51
270.0
  0
LINE
  5
9A4
  8
1外形線
 10
2218.7333002653158
 20
836.55897080344835
 30
0.0
 11
2208.7333002653158
 21
836.55897080344835
 31
0.0
  0
LINE
  5
9A5
  8
1外形線
 10
2208.7333002653158
 20
832.75897080344839
 30
0.0
 11
2218.7333002653158
 21
832.75897080344839
 31
0.0
  0
ARC
  5
9A6
  8
1外形線
 10
2218.7333002653158
 20
834.65897080344826
 30
0.0
 40
1.8999999999999999
 50
270.0
 51
90.0
  0
LINE
  5
9A7
  8
1外形線
 10
2263.7333002653158
 20
872.15897080344837
 30
0.0
 11
2263.7333002653158
 21
797.15897080344405
 31
0.0
  0
LINE
  5
9A8
  8
1外形線
 10
2263.7333002653158
 20
965.15897080344848
 30
0.0
 11
2263.7333002653158
 21
902.15897080344837
 31
0.0
  0
LINE
  5
9A9
  8
1外形線
 10
1908.7333002653161
 20
1113.2589708034479
 30
0.0
 11
1918.733300265317
 21
1113.2589708034479
 31
0.0
  0
LINE
  5
9AA
  8
1外形線
 10
1918.733300265317
 20
1117.0589708034479
 30
0.0
 11
1908.7333002653161
 21
1117.0589708034479
 31
0.0
  0
ARC
  5
9AB
  8
1外形線
 10
1908.7333002653161
 20
1115.158970803448
 30
0.0
 40
1.8999999999999999
 50
90.0
 51
270.0
  0
ARC
  5
9AC
  8
1外形線
 10
1918.733300265317
 20
1115.158970803448
 30
0.0
 40
1.8999999999999999
 50
270.0
 51
90.0
  0
ARC
  5
9AD
  8
1外形線
 10
2018.733300265317
 20
1115.158970803448
 30
0.0
 40
1.8999999999999999
 50
270.0
 51
90.0
  0
ARC
  5
9AE
  8
1外形線
 10
2008.7333002653161
 20
1115.158970803448
 30
0.0
 40
1.8999999999999999
 50
90.0
 51
270.0
  0
LINE
  5
9AF
  8
1外形線
 10
2008.7333002653161
 20
1113.2589708034479
 30
0.0
 11
2018.733300265317
 21
1113.2589708034479
 31
0.0
  0
LINE
  5
9B0
  8
1外形線
 10
2018.733300265317
 20
1117.0589708034479
 30
0.0
 11
2008.7333002653161
 21
1117.0589708034479
 31
0.0
  0
LINE
  5
9B1
  8
1外形線
 10
2118.7333002653158
 20
1117.0589708034479
 30
0.0
 11
2108.7333002653172
 21
1117.0589708034479
 31
0.0
  0
LINE
  5
9B2
  8
1外形線
 10
2108.7333002653172
 20
1113.2589708034479
 30
0.0
 11
2118.7333002653158
 21
1113.2589708034479
 31
0.0
  0
ARC
  5
9B3
  8
1外形線
 10
2108.7333002653172
 20
1115.158970803448
 30
0.0
 40
1.8999999999999999
 50
90.0
 51
270.0
  0
ARC
  5
9B4
  8
1外形線
 10
2118.7333002653158
 20
1115.158970803448
 30
0.0
 40
1.8999999999999999
 50
270.0
 51
90.0
  0
ARC
  5
9B5
  8
1外形線
 10
2208.7333002653158
 20
1115.158970803448
 30
0.0
 40
1.8999999999999999
 50
90.0
 51
270.0
  0
ARC
  5
9B6
  8
1外形線
 10
2218.7333002653158
 20
1115.158970803448
 30
0.0
 40
1.8999999999999999
 50
270.0
 51
90.0
  0
LINE
  5
9B7
  8
1外形線
 10
2208.7333002653158
 20
1113.2589708034479
 30
0.0
 11
2218.7333002653158
 21
1113.2589708034479
 31
0.0
  0
LINE
  5
9B8
  8
1外形線
 10
2218.7333002653158
 20
1117.0589708034479
 30
0.0
 11
2208.7333002653158
 21
1117.0589708034479
 31
0.0
  0
LINE
  5
9B9
  8
1外形線
 10
2263.7333002653158
 20
1145.158970803448
 30
0.0
 11
2263.7333002653158
 21
1085.158970803448
 31
0.0
  0
LINE
  5
9BA
  8
1外形線
 10
2263.7333002653158
 20
1234.158970803448
 30
0.0
 11
2263.7333002653158
 21
1175.158970803448
 31
0.0
  0
ENDSEC
  0
EOF
